Moonspell

Moonspell - Love Crimes guitar tab

"LOVE CRIMES" by "MOONSPELL"

from the album Wolfheart

transcribed by David Gagnon

standard tuning

h = hammer on

PM = palm muting

/ = slide up

INTRO:

E--------------------------------------------------------------------|

B--------------------------------------------------------------------|

G--------------------------------------------------------------------|

D2---5---7----------------h--------2---5---7----------------h--------|

A2---5---7---7---6---6---6-7---7---2---5---7---7---6---6---6-7---7---|

E0---3---5-----5---5---5-----------0---3---5-----5---5---5-----------|

E---------------------------------------------arranged keyboard-----|

B-------------------------------------------------------------------|

G---------------------------------------------5---4-----2-4-5-4-----|

D2---5---3-------------------------2---5---3------------------------|

A2---3---3-------------------------2---5---3------------------------|

E0---3---1-------------------------0---1---1------------------------|

RIFF A:

|first guitar:

|E--------------------------------------------------------------------|

|B--------------------------------------------------------------------|

|G--------------------------------------------------------------------|

|D2---5---7----------------h--------2---5---7----------------h--------|

|A2---5---7---7---6---6---6-7---7---2---5---7---7---6---6---6-7---7---|

|E0---3---5-----5---5---5-----------0---3---5-----5---5---5-----------|

| |

|second guitar: |

|E--------------------------------------------------------------------|

|B-------------------------h---------------------------------h--------|

|G------------------------4-5---5---------------------------4-5---5---|

|D2---5---7-------------------------2---5---7-------------------------|

|A2---5---7---7---6---6-------------2---5---7---7---6---6-------------|

|E0---3---5-----5---5---5-----------0---3---5-----5---5---5-----------|

the two guitars:

E--------------------------------------------------------------------|

B--------------------------------------------------------------------|

G--------------------------------------------------------------------|

D2---5---3----------------h--------2---5---3----------------h--------|

A2---5---3---3---2---2---2-3---3---2---5---3---3---2---2---2-3---3---|

E0---3---1-----1---1---1-----------0---3---1-----1---1---1-----------|

repeat riff A again,

BRIDGE:

E--------|

B--------|

G--------|

D2---5---|

A2---5---|

E0---3---|

RIFF B:

|first guitar:

|E--------------------------------------------------------------------|

|B--------------------------------------------------------------------|

|G--------------------------------------------------------5-5-5-4-5-4-|

|D--------22222245------------------------22222245--------5-5-5-4-5-4-|

|A----2222--------333333333333333322222222--------333333333-3-3-2-3-2-|

|E0000----------------------------------------------------------------|

| PM.........|

|second guitar: not sure here, hard to find

|E--------------------------------------------------------------------|

|B--------------------------------------------------------------------|

|G--------------------------------------------------------------------|

|D--------22222245----555577779999--------22222245555555555-555-4-5-4-|

|A22222222--------3333----------------2222----------------------------|

|E--------------------------------0000--------------------------------|

|first guitar:

|E--------------------------------------------------------------------|

|B--------------------------------------------------------------------|

|G--------------------------------------------------------5-5-5-4-5-4-|

|D--------22222245------------------------22222245--------5-5-5-4-5-4-|

|A----2222--------333333333333333322222222--------333333333-3-3-2-3-2-|

|E0000----------------------------------------------------------------|

| PM.........|

|second guitar:

|E--------------------------------------------------------------------|

|B--------------------------------------------------------------------|

|G--------------------------------------------------------------------|

|D--------22222245------------------------22222245555555555-555-4-5-4-|

|A22222222--------3333333333333333----2222----------------------------|

|E--------------------------------0000--------------------------------|

repeat riff B again,

play riff A twice,

play bridge,

play riff B twice,

RIFF C:(two guitars)

E----------------------------------------------------|

B----------------------------------------------------|

G----------------------------------------------------|

D----------------------------------7-5-4-------7-5-4-|

A7-777-10-9-10-7-777-10-9-10-5-555-------5-555-------|

E----------------------------------------------------|

E------------------------------------------------|

B------------------------------------------------|

G------------------------------------------------|

D------5-4-5-------5-4-5-------------------------|

A3-333-------3-333-------------7-----------9-----|

E------------------------5-555---5-5-7-777---7-7-|

repeat riff C two more times then,

RIFFD:

|first guitar:

|E------------------------------------------------------|

|B------------------------------------------------------|

|G------------------------------------------------------|

|D----------------------------------7-5--4-------7-5--4-|

|A7-777-10-9-10-7-777-10-9-10-5-555--------5-555--------|

|E------------------------------------------------------|

|

|second guitar:

|E------------------------------------------------------|

|B------------------------------------------------------|

|G------------------------------------------------------|

|D9-999-10-9-7--9-999-10-9-7----------------------------|

|A----------------------------9-999-9-10-9-9-999-9-10-9-|

|E------------------------------------------------------|

|first guitar:

|E-------------------------------------------------------|

|B-------------------------------------------------------|

|G-------------------------------------------------------|

|D------5--4--5--------5--4--5---------------------------|

|A3-333----------3-333----------------7------------9-----|

|E------------------------------5-555---5-5--7-777---7-7-|

|

|second guitar:

|E-------------------------------------------------------|

|B-------------------------------------------------------|

|G-------------------------------------------------------|

|D9-999-10-12-10-9-999-10-12-10--------------------------|

|A------------------------------9-999-9-9----10----9---7-|

|E-------------------------------------------------------|

RIFF E:

bass only for first time

| |

E|-------|---------------------------------------------------------|

B|-------|---------------------------------------------------------|

G|--------9---9-9-9---9-9-9---9-9----------7---7-7-7---7-7-5---5-5-|

D---------9---9-9-9---9-9-9---9-9----------7---7-7-7---7-7-5---5-5-|

A10-9-7-9-7---7-7-7---7-7-7---7-7-10-9-7-9-5---5-5-5---5-5-3---3-3-|

E---------0---0-0-0---0-0-0---0-0----------------------------------|

PM.| PM.| PM.| PM.| PM.|

repeat riff E again,

base bridge: ( arranged for guitar on D string: D--3//5--10--12--| ),

play riff E four times, each entirely with two guitars,

RIFF F:

chords:

E5

E5

one guitar pick-scratches,

play riff E four times, each entirely with two guitars,

play riff F,

play riff B twice

No guitars till the end of the song: keyboards, bass, sounds effects...

I suggest to end the song here if you don't have a keyboard player.

Get this song at:  amazon.com sheetmusicplus.com

Share your thoughts

0 Comments found