Moonspell

Moonspell - In And Above Men guitar tab

-------------------------------------------------------------------------------

IN AND ABOVE MAN - MOONSPELL

-------------------------------------------------------------------------------

Tabbed by: Benjamin Cable AKA. The Silly Trout

Email: obiben10@hotmail.com

Tuning: Standart Concert Pictch

INTRO

e|---------------------------------------------------------------------------|

B|---------------------------------------------------------------------------|

G|---------------------------------------------------------------------------|

D|-9--7--6----9--7--10---9--7--6----3-3--2/---6--3--2------------------------|

A|-9--7--6----9--7--10---9--7--6----3-3--2/---6--3--2------------------------|

E|-7--5--4----7--5--8----7--5--4----1-1--0----4--1--0------------------------|

PLAYED BEFORE VERSE

e|---------------------------------------------------------------------------|

B|---------------------------------------------------------------------------|

G|---------------------------------------------------------------------------|

D|-2--7--3--5--2---7--3--5--5~+---2--7--3--3--2--7--3--6-5--2----------------|

A|-2--7--3--5--2---7--3--5--------2--7--3--3--2--7--3--6-5--2----------------|

E|-0--5--1--3--0---5--1--3--------0--5--1--5--0--5--1--4-3--0--x3-x2-x0-x2-x3|

e|---------------------------------------------------------------------------|

B|---------------------------------------------------------------------------|

G|---------------------------------------------------------------------------|

D|-3-xx-3-x-2--2-7-3-2-------------------------------------------------------|

A|-3-xx-3-x-2--2-7-3-2-------------------------------------------------------|

E|-1-xx-1-x-0--0-5-1-0-------------------------------------------------------|

"The fury of waters" Verse

GUITAR1 Ricardo Armorim

e|---------------------------------------------------------------------------|

B|---------------------------------------------------------------------------|

G|---------------------------------------------------------------------------|

D|-----------------------------------------------------------------2-------2-|

A|-----------------------------------------------------------------2-------2-|

E|-7-7-7--5-5--4-4--7-7-7--5-5--9-9--9--7-7-7--5-5--4-4--1-x-x-1-x-0--4-1--0-|

GUITAR2 Pedro Paix√£o

e|---------------------------------------------------------------------------|

B|---------------------------------------------------------------------------|

G|---------------------------------------------------------------------------|

D|-2-x-x-2-2--7-7-7--6-6--10-10---10--2-x-x-2-2--3-x-x-3-x-2-----------------|

A|-2-x-x-2-2--7-7-7--6-6--10-10---10--2-x-x-2-2--3-x-x-3-x-2-----------------|

E|-0-x-x-0-0--5-5-5--4-4--8--8----8---0-x-x-0-0--1-x-x-1-x-0-----------------|

CHORUS GUITAR2

e|---------------------------------------------------------------------------|

B|---------------------------------------------------------------------------|

G|---------------------------------------------------------------------------|

D|-2--7--3--5--2---7--3--5--5~+---2--7--3--3--2--7--3--6-5--2----------------|

A|-2--7--3--5--2---7--3--5--------2--7--3--3--2--7--3--6-5--2----------------|

E|-0--5--1--3--0---5--1--3--------0--5--1--5--0--5--1--4-3--0----------------|

e|---------------------------------------------------------------------------|

B|---------------------------------------------------------------------------|

G|---------------------------------------------------------------------------|

D|-7--3--5--2---7--3--5--5~+---2--7--3--3--2--7--3--6-5--2--2----------------|

A|-7--3--5--2---7--3--5--------2--7--3--3--2--7--3--6-5--2--2----------------|

E|-5--1--3--0---5--1--3--------0--5--1--5--0--5--1--4-3--0--0--x3-x2-x0-x2-x3|

e|---------------------------------------------------------------------------|

B|---------------------------------------------------------------------------|

G|---------------------------------------------------------------------------|

D|-x-x-3-x-x-3-x-x-2----2-----------------------------------------------------|

A|-x-x-3-x-x-3-x-x-2----2-----------------------------------------------------|

E|-x-x-1-x-x-1-x-x-0----0-----------------------------------------------------|

CHORUS GUITAR1

e|---------------------------------------------------------------------------|

B|---------------------------------------------------------------------------|

G|---------------------------------------------------------------------------|

D|-2--7--3--5--2---7--3--5--5~+---2--7--3--3--2--7--3--6-5--2----------------|

A|-2--7--3--5--2---7--3--5--------2--7--3--3--2--7--3--6-5--2----------------|

E|-0--5--1--3--0---5--1--3--------0--5--1--5--0--5--1--4-3--0----------------|

e|---------------------------------------------------------------------------|

B|---------------------------------------------------------------------------|

G|---------------------------------------------------------------------------|

D|-7--3--5--2---7--3--5--5~+---2--7--3--3--2--7--3--6-5--2--2----------------|

A|-7--3--5--2---7--3--5--------2--7--3--3--2--7--3--6-5--2--2----------------|

E|-5--1--3--0---5--1--3--------0--5--1--5--0--5--1--4-3--0--0--x3-x2-x0-x2-x3|

e|---------------------------------------------------------------------------|

B|---------------------------------------------------------------------------|

G|---------------------------------------------------------------------------|

D|-x-x-3-x-x-3-x-x-2--------2------------------------------------------------|

A|-x-x-3-x-x-3-x-x-2--------2------------------------------------------------|

E|-x-x-1-x-x-1-x-x-0--4--1--0------------------------------------------------| Then:

"in and above men..." "in and above men..."

e|---------------------------------------------------------------------------|

B|---------------------------------------------------------------------------|

G|---------------------------------------------------------------------------|

D|---------------------------------------------------------------------------|

A|---------------------------------------------------------------------------|

E|--7-6-3-7-10------------------7-6-3-7-10-----------------------------------|

BRIGDE GUITAR1

e|---------------------------------------------------------------------------|

B|---------------------------------------------------------------------------|

G|---------------------------------------------------------------------------|

D|-----------------------------------------------------------------2-------2-|

A|-----------------------------------------------------------------2-------2-|

E|-7-7-7--5-5--4-4--7-7-7--5-5--9-9--9--7-7-7--5-5--4-4--1-x-x-1-x-0--4-1--0-|

BRIDGE GUITAR2

e|---------------------------------------------------------------------------|

B|---------------------------------------------------------------------------|

G|---------------------------------------------------------------------------|

D|-2-2--------------2-2--------------------------------------------------2-2-|

A|-2-2--------------2-2--------------------------------------------------2-2-|

E|-0-0-x3-x2-x1-x0--0-0--x3-x2-x1-x0-x3-x2-x1-x0-x3-x2-x1-x0-x3-x2-x1-x0-0-0-| 2X Then:

e|---------------------------------------------------------------------------|

B|---------------------------------------------------------------------------|

G|---------------------------------------------------------------------------|

D|-3-x-x-3-x-x-2-------------------------------------------------------------|

A|-3-x-x-3-x-x-2-------------------------------------------------------------|

E|-1-x-x-1-x-x-0-------------------------------------------------------------|

OUTRO BOTH GUITARS all chords are muted

e|---------------------------------------------------------------------------|

B|---------------------------------------------------------------------------|

G|---------------------------------------------------------------------------|

D|--2-2-2--7-7--6-6-6-6-6-6-6-6----------------------------------------------|

A|--2-2-2--7-7--6-6-6-6-6-6-6-6----------------------------------------------|

E|--0-0-0--5-5--4-4-4-4-4-4-4-4----------------------------------------------|

"bleeding the skys all over me..."

OUTRO changes to:

Guitar1 adds

e|---------------------------------------------------------------------------|

B|---------------------------------------------------------------------------|

G|---------------------------------------------------------------------------|

D|--2-2-2--7-7--6-6-6-6-6-6-6-6----------------------------------------------|

A|--2-2-2--7-7--6-6-6-6-6-6-6-6----------------------------------------------|

E|--0-0-0--5-5--4-4-4-4-4-4-4-4--6-6-7---3-3-4-3-0--------------------------|

Then it changes to:

Guitar2 UNMUTED CHORDS

e|---------------------------------------------------------------------------|

B|---------------------------------------------------------------------------|

G|---------------------------------------------------------------------------|

D|--2-2-2--7-7--6--6---6--3--2-----------------------------------------------|

A|--2-2-2--7-7--6--6---6--3--2-----------------------------------------------|

E|--0-0-0--5-5--4--4---4--1--0-----------------------------------------------|

Guitar1

e|---------------------------------------------------------------------------|

B|---------------------------------------------------------------------------|

G|---------------------------------------------------------------------------|

D|-------------------------------------3--2----------------------------------|

A|-------------------------------------3--2----------------------------------|

E|-0----5-4--4--4--4--0-----5-4--4--4--1--0----------------------------------|

The end !!

Well this was my first ever tab , so don't get angry if you see some mistakes !

My email is on the top for any one that has to insult me.

Moonspell has not much tabs here on UG, I hope to see many more soon.

And I think we'll definatly see some of mines soon too !!

MORE MOONSPELL COMMING !!

Ben , AKA the Silly Trout

| / slide up

| slide down

| h hammer-on

| p pull-off

| ~ vibrato

| + harmonic

| x Mute note

===============================================================================

Get this song at:  amazon.com sheetmusicplus.com

Share your thoughts

0 Comments found