Moonspell

Moonspell - Full Moon Madness guitar tab

Full Moon Madness - Moonspell

(c) Tab by Ricardo

Intro

E------------------2--------2--2--2--------2--------4-----------4--/----

B------------------3--------3--3--3--------3--------5-----------5--/----

G------------------2--------2--2--2--------2--------4-----------4--/----

D------------------0--------0--0--0--------0--------0-----------0--/----

A-----------------------------------------------------------------------

E-----------------------------------------------------------------------

E---5--5-------------------6--------5h6p5--------------5----------------

B---6--6--------------------------------------6-----6-------------------

G---5--5-----------------------------------------5----------------------

D---0--0-----(0)--------------------0---------------0-------------------

A-----------------------------------------------------------------------

E-----------------------------------------------------------------------

E-----------------------------------------------------------------------

B---------------------------6----------------------------6--------------

G------------------------------5-------------------------5--------------

D---------------------------------------(0)--------------0--------------

A-----------------------------------------------------------------------

E-----------------------------------------------------------------------

E---2--------2--2--------------------------2--------2--------4----------

B---3--------3--3--------------------------3--------3--------5----------

G---2--------2--2--------------------------2--------2--------4----------

D---0--------0--0--------------------------0--------0--------0----------

A-----------------------------------------------------------------------

E-----------------------------------------------------------------------

E---4--/--5-------------------------------------------------------------

B---5--/--6-------------------------------------------------------------

G---4--/--5-------------------------------------------------------------

D---0-----0-----------(0)-----------------------------------------------

A-----------------------------------------------------------------------

E-----------------------------------------------------------------------

E--------------------------5--------------5-----------------------------

B-----------------6-----------6-----6--------6--------------------------

G--------------5-----5-----------5-----5--------5-----------------------

D---(0)--------------0--------------0-----------0-----------------------

A-----------------------------------------------------------------------

E-----------------------------------------------------------------------

E------------------------------5--------------------2--------2--2--2----

B------------------------------6--------------------3--------3--3--3----

G------------------------------5--------------------2--------2--2--2----

D------------------------------0--------------------0--------0--0--0----

A-----------------------------------------------------------------------

E-----------------------------------------------------------------------

E------------2--------4-----------4--/--5--5--5--------2--------2--2----

B------------3--------5-----------5--/--6--6--6--------3--------3--3----

G------------2--------4-----------4--/--5--5--5--------2--------2--2----

D------------0--------0-----------0--------------------0--------0--0----

A-----------------------------------------------------------------------

E-----------------------------------------------------------------------

E---2-----------2-----------------4-----------4--/--5--5--5--------2----

B---3-----------3-----------------5-----------5--/--6--6--6--------3----

G---2-----------2-----------------4-----------4--/--5--5--5--------2----

D---0-----------0-----------------0-----------0--------------------0----

A-----------------------------------------------------------------------

E-----------------------------------------------------------------------

E---------2--2--2--------2--------------4-----------4--/--5--5--5-------

B---------3--3--3--------3--------------5-----------5--/--6--6--6-------

G---------2--2--2--------2--------------4-----------4--/--5--5--5-------

D---------0--0--0--------0--------------0-----------0-------------------

A-----------------------------------------------------------------------

E-----------------------------------------------------------------------

E------2--------2--2--2--------------------2--------4--------4--/--5----

B------3--------3--3--3--------------------3--------5--------5--/--6----

G------2--------2--2--2--------------------2--------4--------4--/--5----

D------0--------0--0--0--------------------0--------0--------0----------

A-----------------------------------------------------------------------

E-----------------------------------------------------------------------

E---5--5--------2--------2--2-----------------2--------2--------4-------

B---6--6--------3--------3--3-----------------3--------3--------5-------

G---5--5--------2--------2--2-----------------2--------2--------4-------

D---------------0--------0--0-------------------------------------------

A-----------------------------------------------------------------------

E-----------------------------------------------------------------------

Chorus

E------4--/--5--5--5--5--------------------------------0----------------

B------5--/--6--6--6--6-----------------------------0--------0----------

G------4--/--5--5--5--5-----4--------4--------------------4-----4--/----

D---------------------------2-------------------------------------------

A---------------------------2--------------------------------------/----

E---------------------------0-------------------------------------------

E-------------------------------------------------------------0---------

B----------------------------------------------------------0------------

G---12--------12----11--------11-------4--------4--------------4------

D----------------------------------------2------------------------------

A---10--------10----9---------9--------2------------------------------

E----------------------------------------0------------------------------

E-----------------------------------------------------------------------

B---0-------------------------------------------------------------0-----

G------4--/--12--------12----11--11--------11-------5--------5--------

D-----------------------------------------------------5-----------------

A---------/--10--------10----9---9---------9--------3-----------------

E-----------------------------------------------------------------------

E---0-------------------------------------------------------------------

B------0-----0----------------------------------------------------------

G---------5--------/--12--------12----11--11-----------11-------7-----

D-----------------------------------------------------------------7-----

A------------------/--10--------10----9---9------------9--------5-----

E-----------------------------------------------------------------------

E------------0----------------------------------------------------------

B---------0-----0-----0-------------------------------------------------

G------7-----------7--------/--12--------12--/--14--14-----------14-----

D-----------------------------------------------------------------------

A---------------------------/--10--------10--/--12--12-----------12-----

E-----------------------------------------------------------------------

E------------------------------0----------------------------------------

B---------------------------0--------0----------------------------------

G--------------4--------4--------4-----0-----/--12--------12----11----

D--------------2-------------------------------------------------------

A--------------2-----------------------------/--10--------10----9-----

E--------------0-------------------------------------------------------

E--------------------------------------0--------------------------------

B-----------------------------------0--------0--------------------------

G---11-----------11----4--------4--------4-----4-----/--12-------------

D-----------------------2-----------------------------------------------

A---9------------9-----2-----------------------------/--10-------------

E-----------------------0-----------------------------------------------

E----------------------------------------------0------------------------

B-------------------------------------------0-----9-----0---------------

G---10----11--11--------11----5--------5-----------5--------/--12-----

D-------------------------------5---------------------------------------

A---10----9---9---------9-----3-----------------------------/--10-----

E-----------------------------------------------------------------------

E----------------------------------------------------------0------------

B-------------------------------------------------------0-----0---------

G---------12----11--------11--------11----7--------7-----------7------

D-------------------------------------------7---------------------------

A---------10----9---------9---------9-----5---------------------------

E-----------------------------------------------------------------------

Verse

E-----------------------------------------------------------------------

B---0-------------------------------------------------------------0-----

G---------/--12--------12--/--14--14--------14-------------5-----------

D--------------------------------------------------------7-----7--------

A---------/--10--------10--/--12--12--------12-------0-----------------

E-----------------------------------------------------------------------

E---------------------------------------------------------0-------------

B------------------------------------------------------------0----------

G------5-----------------------------------------4--------------7-------

D---7-----7-----------------------------------5-----5--------------9----

A------------------------------------------0----------------------------

E-----------------------------------------------------------------------

E------------------------------------------------------------0----------

B---------------0-----------------------------------------------0-------

G---------5-----------5--------------------------------4-----------7----

D------7-----6-----7-----7--------------------------5-----5-------------

A---0-----------------------0-------------------------------------------

E-----------------------------------------------------------------------

E-----------------------------------------------------------------------

B------------------0----------------------------------------------------

G------------5-----------5--------------------------------------5-------

D---9-----7-----7-----7-----7--------------------------------0-----4----

A------0----------------------------------------------------------------

E-----------------------------------------------------------------------

E------0----------------------------------------------------------------

B---------0--------------------0----------------------------------------

G---5--------7-----------5-----------5----------------------------------

D---------------9-----7-----7-----7--------------------------------7----

A------------------0----------------------------------------------------

E-----------------------------------------------------------------------

Pre-Chorus

E---------------0--------------2--------2--2--2--------2----------------

B------------------0-----------3--------3--3--3--------3----------------

G---------4-----------7--------2--------2--2--2--------2----------------

D------5-----5-----------9-----0--------0--0--0--------0----------------

A---0-------------------------------------------------------------------

E-----------------------------------------------------------------------

E------------4--------4--/--5--5--5--------2--------2--2--2-------------

B------------5--------5--/--6--6--6--------3--------3--3--3-------------

G------------4--------4--/--5--5--5--------2--------2--2--2-------------

D------------0--------0--------------------0--------0--0--0-------------

A-----------------------------------------------------------------------

E-----------------------------------------------------------------------

E---------------------2--------4--------4--/--5--5--5--5----------------

B---------------------3--------5--------5--/--6--6--6--6----------------

G---------------------2--------4--------4--/--5--5--5--5----------------

D---------------------0--------0--------0-------------------------------

A-----------------------------------------------------------------------

E-----------------------------------------------------------------------

Bridge (1st guitar)

E-----------------------------------------------------------------------

B-----------------------------------------------------------------------

G---------------------2-----------2--------2--------2-----------03------

D---------------------2--2--2--2--2--2--2--2--2--2--2-----------h3------

A---------------------0--0--0--0--0--0--0--0--0--0--0--0----------------

E-----------------------------------------------------------------------

Brigde (2nd guitar)

E-----------------------------------------------------------------------

B---------------------10-----------10--------10--------10---------------

G---------------------9------------9---------9---------9----------------

D---------------------7---7--7--7--7---7--7--7---7--7--7----------------

A---------------------0---0--0--0--0---0--0--0---0--0--0---0------------

E-----------------------------------------------------------------------

(1st)

E-----------------------------------------------------------------------

B---8--/--11------------------------------------------------------------

G---7--/--10--------------3--------2-----------2--------2--------2------

D---5--/--8---------------3--------2--0--0--0--2--2--2--2--2--2--2------

A-------------------------------------2--2--2--0--0--0--0--0--0--0------

E-----------------------------------------------------------------------

(2nd)

E-----------------------------------------------------------------------

B-------------------------11--------10-----------10--------10-----------

G------------0h-----------10--------9------------9---------9------------

D------------h------------8---------7---7--7--7--7---7--7--7---7--7-----

A---0-----------------------------------0--0--0--0---0--0--0---0--0-----

E-----------------------------------------------------------------------

(1st)

E-----------------------------------------------------------------------

B---10-----------8--/---------------------------------------------------

G---9------------7--/--------h--3--3--------2-----------2--------2------

D---7------------5--/--------h--3--3--------2--2--2--2--2--2--2--2------

A---0---0--------------------------------------0--0--0--0--0--0--0------

E-----------------------------------------------------------------------

(2nd)

E-----------------------------------------------------------------------

B------------------------------/--11--11--------10-----------10---------

G---------2--------------------/--10--10--------9------------9----------

D---2--2--2--------------------/--8---8---------7---7--7--7--7---7------

A---0--0--0--0--------------------------------------0--0--0--0---0------

E-----------------------------------------------------------------------

(1st)

E-----------------------------------------------------------------------

B------10--------10-----------------------------------------------------

G------9---------9---------------0h--3--3--------2-----------2----------

D---7--7---7--7--7---------------h---3--3--------2--2--2--2--2--2--2----

A---0--0---0--0--0---0------------------------------0--0--0--0--0--0----

E-----------------------------------------------------------------------

(2nd)

E-----------------------------------------------------------------------

B---------------------------8--/--11--11--------10-----------10---------

G---2--------2--------------7--/--10--10--------9------------9----------

D---2--2--2--2--------------5--/--8---8---------7---0--0--0--7---0------

A---0--0--0--0--------------------------------------7--7--7--0---7------

E-----------------------------------------------------------------------

(1st)

E---------------------------------------------------------12------------

B------10--------10---------------------------------------15^-----------

G------9---------9------------------------0---3--3----------------------

D---0--7---0--0--7------------------------0h--3--3----------------------

A---7--0---7--7--0---0--------------0-----h-----------------------------

E-----------------------------------------------------------------------

(2nd)

E------12---------------------------------------------------------------

B------15^---------------------------------------8--/--11--11-----------

G-----------------------------16-----------------7--/--10--10-----------

D---------------------/14------------------------5--/--8---8------------

A---------------------------------------------0-------------------------

E-----------------------------------------------------------------------

E-----------------------------------------------------------------------

B---------------------------------------------------------------17------

G-----------------------------------------------------------------------

D-----------------------------------------------------------------------

A-----------------------------------------------------------------------

E-----------------------------------------------------------------------

E---14--15-----14h15p14-------------------------------------------------

B------------------------17--15/17-----17--19--17h19p17--15--17---------

G-----------------------------------------------------------------------

D-----------------------------------------------------------------------

A-----------------------------------------------------------------------

E-----------------------------------------------------------------------

E-----------------------------------------------------------------------

B------1513-----12--13--12--13------12--13------13^--------13p12-------

G--------------------------------14----------14-------------------------

D-----------------------------------------------------------------------

A-----------------------------------------------------------------------

E-----------------------------------------------------------------------

E-----------------------------------------------------------------------

B---13-----------12h13p12-----13^--13--12--13--------12--13--12h13------

G-----------------------------------------------------------------------

D-----------------------------------------------------------------------

A-----------------------------------------------------------------------

E-----------------------------------------------------------------------

E-----------------------------------------------------------------------

B---p12------12---------------------------------------------------------

G--------14------14-----12--11--12--11h12p11------------------11h12-----

D---------------------------------------------14--12------12------------

A-----------------------------------------------------14----------------

E-----------------------------------------------------------------------

E-----------------------------------------------------------------------

B-----------------------------------------------------------------------

G----------------------------------14/16--------------------------------

D---14--12--12/14--------------12---------1412-----12--------12-------

A-----------------------------------------------------------------------

E-----------------------------------------------------------------------

E-----------------------------------------------------------------------

B-----------------------------------------------------------------------

G------------------------------------------------5--4h5p4-----4--5------

D----------------------------------------------------------7------------

A-----------------------------------------------------------------------

E-----------------------------------------------------------------------

E-----------------------------------------------------------------------

B-----------------------------------------------------------------------

G---5/7--5--7--7/9--7--9--9/11--9h11p97--7/9---------9/11h12--11h12----

D-------------------------------------------------12--------------------

A-----------------------------------------------------------------------

E-----------------------------------------------------------------------

E-----------------------------------------------------------------------

B------------------------12h13------------------------------12----------

G---p11------11--12--14---------14--------------------------------------

D--------14-------------------------------------------------------------

A-----------------------------------------------------------------------

E-----------------------------------------------------------------------

E-----------------------------------------------------------------------

B---13h15p1312--13p1210h12p10------10---------------------------------

G--------------------------------12------12--11h12p11--9h11p9------9----

D--------------------------------------------------------------12-------

A-----------------------------------------------------------------------

E-----------------------------------------------------------------------

E-------------------------------------12---------12------12---12h15-----

B-------------------------------------15^--------15^-----15^------------

G-----------------------------------------------------------------------

D---12p10h12p10--9h10p97h9p7-------------------------------------------

A------------------------------10--9------------------------------------

E-----------------------------------------------------------------------

E---p12------12h15p12------12h15p12------12h17p15---------12h15p12------

B--------15------------15------------15---------------------------------

G--------------------------------------------------15-------------------

D-----------------------------------------------------------------------

A-----------------------------------------------------------------------

E-----------------------------------------------------------------------

E-------12h17p12------12h15p12------12h15p12----------------------------

B---15------------15------------15------------15--------------15--------

G-------------------------------------------------------------14^-------

D-----------------------------------------------------------------------

A-----------------------------------------------------------------------

E-----------------------------------------------------------------------

E-----------------------------------------------------------------------

B-----------------------------------------------------------------------

G---------14--12--14--------16h17p16------16----------------------------

D-------------------------------------19------19--17--19----------------

A-----------------------------------------------------------------------

E-----------------------------------------------------------------------

E---/19p15--------------------------------------------------------------

B-----------17----------------------------------------------------------

G---------------16--17--19--17--16------16------------------------------

D-----------------------------------19------19--17--16h17------16-------

A----------------------------------------------------------19-----------

E-----------------------------------------------------------------------

E-----------------------------------------------------------------------

B-----------------------------------------------------------------------

G-----------------------------------------------------------------------

D-----------------------------------------------------------------------

A------------17--19--15--17------15-------------------------------------

E----------------------------19------17--19

Get this song at:  amazon.com sheetmusicplus.com

Share your thoughts

0 Comments found