Moonspell

Moonspell - For A Taste Of Eternity guitar tab

E-------------------------------------------------------------------|

B-------------------------------------------------------------------|

G--2--------5-------/12--------------2-----5----/12---10----9-------|

D--2--------5------------------------2-----5------------------------|

A--0--------3-------/10----^^^^^^-*--0-----3----/10----8----7-------|

E-------------------------------------------------------------------|

E-----------0-----------------1---------|

B-------3-------3---------3-------3-----|

G-----2---2---2---2-----2---2---2---2---|

D---3-----------------0-----------------|

A---------------------------------------|

E---------------------------------------|

E-----------------------------------------------------------------------

B-----------------------------------------------------------------------

G---2-------------------------------------------------------------------

D---2----------------2-2-2-2---2h3-2---3--------------3-3-3----2-3-5-3--

A---0----0-0-3-3-3-3---------3-------3-3------3-3-3-3-------3-----------

E--------------------------------------1--1-1---------------------------

E---------------------------------------------------------------------|

B---------------------------------------------------------------------|

G---2-----------------------------------------------------------------|

D---2----------------2-2-2-2---2h3-2---3--------------5------2-3-2----|

A---0----0-0-3-3-3-3---------3-------3-3------3-3-3-3-5------------3--|

E--------------------------------------1--1-1---------3--3-3----------|

E-----------------------------|-----------------------------------------

B-----------------------------|---------0-------------0------------0----

G--2-/*-----------------------|-----2------------2-------------2--------

D--2-/------------------------|---2---2--------2---2---------2---2------

A--0-/------------------------|-0------------3-------------0------------

E-----------------------------|-----------------------------------------

E----------------------------0-------------0-----------0-----------0----

B------------0-----------3------------3------------3-----------3--------

G-------2--------------2---2--------2---2--------2---2-------2---2------

D-----2---2----------3------------0------------3-----------0------------

A---3-------------------------------------------------------------------

E-----------------------------------------------------------------------

E----------------------------------------------------|------------------

B----------0-----------0-----------0-----------0-----|------------------

G------2-----------2-----------2-----------2---------|------------------

D----2---2-------2---2-------2---2-------2---2-------|------------------

A--0-----------0-----------0-----------0-------------|------------------

E----------------------------------------------------|------------------

Get this song at:  amazon.com sheetmusicplus.com

Share your thoughts

0 Comments found