Moonspell

Moonspell - Everything Invaded guitar tab

Artist: MoonSpell

Music: Everything Invaded

CD: The Antidote 2003

Tabbed By: Ricardo Dias, Lisbon

Intro and Verses

|-----------------------------

|--0--0--0--1--1--1--3--3--3--

|--2--2--2--2--2--2--2--2--2--

|--2--2--2--2--2--2--2--2--2--

|-----------------------------

|-----------------------------

00:10

Other part of intro

|--------------------------------------------------------------|

|--------------------------------------------------------------|

|-7-7-7-7-7-7-5-5-5-5-5-5-7-7-7-7-7-7-5-5-5-5-5-5-3-3-3-3-3-3--|

|-7-7-7-7-7-7-5-5-5-5-5-5-7-7-7-7-7-7-5-5-5-5-5-5-1-1-1-1-1-1--|

|-5-5-5-5-5-5-3-3-3-3-3-3-5-5-5-5-5-5-3-3-3-3-3-3-1-1-1-1-1-1--|

|--------------------------------------------------------------|

1:07

Chorus

|--------------------------------------------------------------|

|--------------------------------------------------------------|

|-7-7-7-7-7-7-5-5-5-5-5-5-7-7-7-7-7-7-5-5-5-5-5-5-3-3-3-3-3-3--|

|-7-7-7-7-7-7-5-5-5-5-5-5-7-7-7-7-7-7-5-5-5-5-5-5-1-1-1-1-1-1--|

|-5-5-5-5-5-5-3-3-3-3-3-3-5-5-5-5-5-5-3-3-3-3-3-3-1-1-1-1-1-1--|

|--------------------------------------------------------------|

2:53

|--------------------------------------------------------------------------|

|--------------------------------------------------------------------------|

|--------------------------------------------------------------------------|

|-7-9-10--9v-9v-9v--7-9-10-7-9-9h10--7-9-10--9v-9v-9v--7/9-7-10--10-9-7-10-|

|-7-9-10-----------------------------7-9-10--------------------------------|

|-5-7-8------------------------------5-7-8---------------------------------|

Solo

4:29

|-------------------|--------------------------------------|

|--15---13--15---13-|-13--11--11---10---11/13-11--15---17--|

|-------------------|--------------------------------------|

|-------------------|--------------------------------------|

|-------------------|--------------------------------------|

|-------------------|--------------------------------------|

4:48

|----------------------------------------------------------|

|-----18-15--18-15--18-20-18-17--15--17-15--17-15--17-15---|

|----------------------------------------------------------|

|----------------------------------------------------------|

|----------------------------------------------------------|

|----------------------------------------------------------|

4:53

|----------------------------------------------------------|

|-----18-15--18-15--18-20-18-17--15-17-15/22-22------------|

|----------------------------------------------------------|

|----------------------------------------------------------|

|----------------------------------------------------------|

|----------------------------------------------------------|

4:58

|--------------------------------|

|--------------------------------|

|--7---109---1210---12----14---|

|--------------------------------|

|--------------------------------|

|--------------------------------|

5:07

|-------------------------------------------------------------|

|---15h18p15-15h18p15-15h18p15-15h18p15-15h18p15-15h18p15-----|

|-------------------------------------------------------------|

|-------------------------------------------------------------|

|-------------------------------------------------------------|

|-------------------------------------------------------------|

|-------------------------------------------------------------|

|-15h17p15-15h17p15-15h17p15-15h17p15-15h17p15-15h17p15-------|

|-------------------------------------------------------------|

|-------------------------------------------------------------|

|-------------------------------------------------------------|

|-------------------------------------------------------------|

|-------------------------------------------------------------|

|--15h18p15-15h18p15-15h18p15-15h18p15-15h18p15-15h18p15------|

|-------------------------------------------------------------|

|-------------------------------------------------------------|

|-------------------------------------------------------------|

|-------------------------------------------------------------|

|---------------------------------------------15-17-19-17-----------|

|--15h17p15-15h17p15-15h17p15-15h17p15--15-17-------------18-17-15--|

|-------------------------------------------------------------------|

|-------------------------------------------------------------------|

|-------------------------------------------------------------------|

|-------------------------------------------------------------------|

5:16

|----------------------------------------------|

|--15-15--18-17-18-15---13-15-17-18-15-13-15---|

|----------------------------------------------|

|----------------------------------------------|

|----------------------------------------------|

|----------------------------------------------|

|-17h18p17h18-15h17p15h17-14h15p14h15--------------------------------------|

|------------------------------------17h19p17h19-15h17p15h17-14h15p14h15-12|

|--------------------------------------------------------------------------|

|--------------------------------------------------------------------------|

|--------------------------------------------------------------------------|

|--------------------------------------------------------------------------|

Get this song at:  amazon.com sheetmusicplus.com

Share your thoughts

0 Comments found