Moonspell

Moonspell - Capricorn At Her Feet guitar tab

Band- Moonspell

Song- Capricorn At Her Feet

Album- The Antidote

Tuning- EADGBe

Alright, I've only figured out the intro/chorus part thus far. And I think it goes like this

|----------------------------|

|----------------------------|(Play this 3X)

|--------------5--5-5-5-5\\4--|

|--------2-4-5-5--5-5-5-5\\4--|

|--2-----------3--3-3-3-3\\2--|

|----0-----------------------|

Then

|------------------------|

|------------------------|

|--5-xx-5-xx-7-xx-9-9-9--|

|--5-xx-5-xx-7-xx-9-9-9--|

|--3-xx-3-xx-5-xx-7-7-7--|

|----xx---xx---xx--------|

EnjoyAdded by tabs-database.com and our distinguished partners

Get this song at:  amazon.com sheetmusicplus.com

Share your thoughts

0 Comments found