Moonspell

Moonspell - An Erotic Alchemy guitar tab

Music: An Erotic Alchemy

Band: Moonspell

Album: Wolfheart

Lyrics by Langsuyar, Music by Moonspell

00:00 -> 00:13 - Synth

00:13 -> 00:20 - Synth and Bass

-----------------------------------------------------------------

-more- http://alfa.ist.utl.pt/~l42686

[homepage]

mailto:l42686@alfa.ist.utl.pt

[email]

http://alfa.ist.utl.pt/~l40104/moonspell/index.html

Moonspell

2

-----------------------------------------------------------------

-----------------------------------------------------------------

-----------------------------------------------------------------

-5-5-5-5-5-5-5-5-1-1-1-1---------5-5-5-5-5-5-5-5-1-1-1-1---------

-------------------------3-3-3-3-------------------------3-3-3-3-

00:20 -> 00:35 - The bass continues and it is acompanied by Riff 1 repeated 4

times (Riff 1 is actually played by a keyboard... This is an

arrangement for guitar)

RIFF 1:

D5 A#5 G5

------------------------------

-6-5-------5-6-5---6-5---6-5--

-----7-6-7-------7-----7------

------------------------------

------------------------------

------------------------------

00:35 -> 00:41 - Riff 2 is played 2 times.

RIFF 2:

C5

-------------------------------

-------------------------------

---------------5------3--------

-----------------5------3------

-------------------3------1----

-------------------------------

00:41 -> 00:56 - Play Riff 1 other 2 times, and then Riff 2, also 2 times.

00:56 -> 01:10 - Play Riff 3, two times, and then play and mute the D5 chord.

RIFF 3:

-------

-------

7--------7-9--------9-10------------

-7--------7-9--------9-10------------

-5--------5-7--------7-8-------------

-------------------------------------

4

01:10 -> 01:16 - Synth only, while girl says: 'Tempted is now, my light body'

01:16 -> 02:05 - Riff 1, played 4 times, then Riff 2, played 2 times, then

Riff 1, played 2 times, then Riff 2, played 2 times.

Then Riff 3, played 2 times.

02:05 -> 02:07 - A little bass part, played like this:

----------

----------

----------

---------

-5-7-8-7--

----------

02:07 -> 03:21 - This part is played with a couple of keyboards (I think).

can't translate them to guitar, but if you want to play

something during this part, try Riff 4 six times.

RIFF 4:

5

--------------------------------------

-6-5------6-5------8-6------8-6-------

-----7-5------7-5------9-7------9-7---

--------------------------------------

--------------------------------------

--------------------------------------

03:21 -> 04:04 - This part doesn't have any guitars, but if you want, you

can play the D5 chord with heavy palm-mutting.

04:04 -> 04:11 - Bass part (like first part) with girl and man talking.

04:11 -> 04:48 - Riff 1, played 4 times, with Riff 2 beeing played 2 times

then. Riff 3 played 2 times comes next.

04:48 -> 05:19 - Keyboard and Langsuyar talking. Sorry, no guitars

05:19 -> 06:02 - Riff 5, played 8 times.

RIFF 5:

6

-----------------------------

----------------------------

------------------------

--8-5-7--3-0--5--8-5-7-10--

06:02 -> 06:31 - Solo. I can't grab the solo (sorry), because I'm not a good

guitarrist and because it's in a low volume. But if you want

to play, you can use this alternative solo:

------------------------------------------------------------------------------

-6-5--------------6-5-----6^-6--6^-6--6-8-8^-8-6-8-6--------------6^-6-5-8^--

-----7-5-------5------7-5-----------------------------7-7-5-7-5-7-------------

---------7-5-7----------------------------------------------------------------

------------------------------------------------------------------------------

------------------------------------------------------------------------------

-----6-5-----------------------------6-5-6-8-10-10-12--

-8-6-----8-6-5---------6^-6-5-8^-8-6-------------------

---------------7-5-7-----------------------------------

-------------------------------------------------------

7

-------------------------------------------------------

-------------------------------------------------------

06:31 -> 07:27 - Again, a part with keyboards, play Riff 4, four times.

07:27 -> 07:57 - Synth, with drums... Acompany with D5 chord, with

palm-mutting.

07:57 -> 08:02 - Final part... Use the D5 chord, no palm-mutting.

08:02 -> 08:04 - Langsuyar saying: 'Whould you die for this ?'

Get this song at:  amazon.com sheetmusicplus.com

Share your thoughts

0 Comments found