Moonspell

Moonspell - Alma Mater guitar tab

#

Transcribed by Suzuki Tetunori

Special thanks to Maekawa Tomomi

Music:ALMA MATER

Album:Wolfheat

Lyrics:LANGSUYAR

Tuning:E A D G B E

Intro

Guitar1

--------------------------------------------

--------------------------------------------

--------------------------------------------

--------------------------------------------

--55555532--33333323--55555532--0-000-0-000-

--------------------------------------------

Guitar2

--------------------------------------------------

--------------------------------------------------

--------------------------------------------------

--12--12-10-9-10---9-10-12--12-10-9--7-777-7-777--

--0---0--0--0-0----0-0--0---0--0--0--0-000-0-000--

--------------------------------------------------

Guitar1

----------------------------------------

----------------------------------------

----------------------------------------

----------------------------------------

--55555532--33333323--------2--------0--

----------------------333333---111111---

Guitar2

-------------------------------------------

-------------------------------------------

-------------------------------------------

--12--12-10-9-10---9-10--------8--------6--

--0---0--0--0-0----0-0---999999---777777---

-------------------------------------------

Guitar3

------------------------------------------

------------------------------------------

------------------------------------------

--12---12-10-9--10---9-10--5------3-------

--12---12-10-9--10---9-10--5------3-------

--10---10-8--7--8----7-8---3------1-------

Main Riff

Guitar1

--------------------------------------------

--------------------------------------------

--------------------------------------------

--------------------------------------------

--55555532--33333323--55555532--0-000-0-000-

--------------------------------------------

Guitar2

--------------------------------------------------

--------------------------------------------------

--------------------------------------------------

--12--12-10-9-10---9-10-12--12-10-9--7-777-7-777--

--0---0--0--0-0----0-0--0---0--0--0--0-000-0-000--

--------------------------------------------------

Guitar3

---------------------------------------------

---------------------------------------------

---------------------------------------------

--12---12-10-9--10----9-10--12--12/10/9/-----

---------------------------------------------

Guitar1

----------------------------------------

----------------------------------------

----------------------------------------

----------------------------------------

--55555532--33333323--------2--------0--

----------------------333333---111111---

Guitar2

-------------------------------------------

-------------------------------------------

-------------------------------------------

--12--12-10-9-10---9-10--------8--------6--

--0---0--0--0-0----0-0---999999---777777---

-------------------------------------------

Guitar3

------------------------------------------

------------------------------------------

------------------------------------------

--12--12-10-9-10---9-10--5555552--3333332-

-------------------------5555552--3333332-

-------------------------3333330--1111110-

Chorus

Guitar1,2

---------------------------------------------------

---------------------------------------------------

---------------------------------------------------

--9-9-9-9-------9-9-9-9------9-9-9-9------10---7---

--9-9-9---9-----9-9-9---9----9-9-9---9----10---7---

--7-7-7-----7---7-7-7-----7--7-7-7-----7--8----5---

Solo

Guitar1

------------------------------------------------------

------------------------------------------------------

------------------------------------------------------

----------22225555-3333-3-32-----0000--------22225555-

--00003333-------------------3333----00003333---------

------------------------------------------------------

Guitar2

------------------------------------------------------

------------------------------------------------------

------------------------------------------------------

----------2---5---3----3-32------0----------2----5----

--0---3---------------------3--------0---3------------

------------------------------------------------------

Guitar1

--------------------

--------------------

--------------------

-3333-3-32----------

-----------33333333-

--------------------

Guitar2

--------------------

--------------------

--------------------

-3----3-32-3---3----

--------------------

--------------------

Guitar1

---------------------------------------------------------------

---------------------------------------------------------------

---------------------------------------------------------------

--0000-0-20-0000-0------------------------0000-0-20-0000-0-----

-------------------32-3333-3-32-2222-2222------------------32--

---------------------------------------------------------------

Guitar2

---------------------------------------------------------------

---------------------------------------------------------------

---------------------------------------------------------------

-0-----0-20-0----0------------------------0---0-20-0-----0-----

-------------------32-3----3-32-2---2----------------------32--

---------------------------------------------------------------

Guitar1

-------------------------------------------------------

-------------------------------------------------------

-------------------------------------------------------

-------------2-2-2-0000-0-20-0000-0--------------------

--3333-3-20--2-2-2------------------32-3333-3-20-2222--

-------------0-0-0-------------------------------------

Guitar2

-------------------------------------------------------

-------------------------------------------------------

-------------------------------------------------------

-------------2-2-2-0---0-20-0-----0--------------------

--3----3-20--2-2-2------------------32-3----3-20-2-----

-------------0-0-0-------------------------------------

Guitar1

-----------------------------------------

-----------------------------------------

-----------------------------------------

------0000-0-20-0000-0-------------------

--2222-----------------32-3333-3-20-2----

-----------------------------------------

Guitar2

-----------------------------------------

-----------------------------------------

-----------------------------------------

------0----0-20-0----0-------------------

--2--------------------32-3----3-20-2----

-----------------------------------------

Outro

Guitar3

-----------------------------------------------------

-----------------------------------------------------

-----------------------------------------------------

--12--10--9--7--10--9--7--5--12--10--9--7--3----1----

-----------------------------------------------------

-----------------------------------------------------

Name:suzuki tetunori

   

-

From tetunori@mars.dtinet.or.jp Wed Oct 23 08:09:04 1996

[The following text is in the "ISO-2022-JP" character set]

[Your display is set for the "US-ASCII" character set]

[Some characters may be displayed incorrectly]

Transcribed by Suzuki Tetunori

Special thanks to Maekawa Tomomi

Music:ALMA MATER

Album:Wolfheat

Lyrics:LANGSUYAR

Tuning:E A D G B E

Intro

Guitar1

--------------------------------------------

--------------------------------------------

--------------------------------------------

--------------------------------------------

--55555532--33333323--55555532--0-000-0-000-

--------------------------------------------

Guitar2

--------------------------------------------------

--------------------------------------------------

--------------------------------------------------

--12--12-10-9-10---9-10-12--12-10-9--7-777-7-777--

--0---0--0--0-0----0-0--0---0--0--0--0-000-0-000--

--------------------------------------------------

Guitar1

----------------------------------------

----------------------------------------

----------------------------------------

----------------------------------------

--55555532--33333323--------2--------0--

----------------------333333---111111---

Guitar2

-------------------------------------------

-------------------------------------------

-------------------------------------------

--12--12-10-9-10---9-10--------8--------6--

--0---0--0--0-0----0-0---999999---777777---

-------------------------------------------

Guitar3

------------------------------------------

------------------------------------------

------------------------------------------

--12---12-10-9--10---9-10--5------3-------

--12---12-10-9--10---9-10--5------3-------

--10---10-8--7--8----7-8---3------1-------

Main Riff

Guitar1

--------------------------------------------

--------------------------------------------

--------------------------------------------

--------------------------------------------

--55555532--33333323--55555532--0-000-0-000-

--------------------------------------------

Guitar2

--------------------------------------------------

--------------------------------------------------

--------------------------------------------------

--12--12-10-9-10---9-10-12--12-10-9--7-777-7-777--

--0---0--0--0-0----0-0--0---0--0--0--0-000-0-000--

--------------------------------------------------

Guitar3

---------------------------------------------

---------------------------------------------

---------------------------------------------

--12---12-10-9--10----9-10--12--12/10/9/-----

---------------------------------------------

Guitar1

----------------------------------------

----------------------------------------

----------------------------------------

----------------------------------------

--55555532--33333323--------2--------0--

----------------------333333---111111---

Guitar2

-------------------------------------------

-------------------------------------------

-------------------------------------------

--12--12-10-9-10---9-10--------8--------6--

--0---0--0--0-0----0-0---999999---777777---

-------------------------------------------

Guitar3

------------------------------------------

------------------------------------------

------------------------------------------

--12--12-10-9-10---9-10--5555552--3333332-

-------------------------5555552--3333332-

-------------------------3333330--1111110-

Chorus

Guitar1,2

---------------------------------------------------

---------------------------------------------------

---------------------------------------------------

--9-9-9-9-------9-9-9-9------9-9-9-9------10---7---

--9-9-9---9-----9-9-9---9----9-9-9---9----10---7---

--7-7-7-----7---7-7-7-----7--7-7-7-----7--8----5---

Solo

Guitar1

------------------------------------------------------

------------------------------------------------------

------------------------------------------------------

----------22225555-3333-3-32-----0000--------22225555-

--00003333-------------------3333----00003333---------

------------------------------------------------------

Guitar2

------------------------------------------------------

------------------------------------------------------

------------------------------------------------------

----------2---5---3----3-32------0----------2----5----

--0---3---------------------3--------0---3------------

------------------------------------------------------

Guitar1

--------------------

--------------------

--------------------

-3333-3-32----------

-----------33333333-

--------------------

Guitar2

--------------------

--------------------

--------------------

-3----3-32-3---3----

--------------------

--------------------

Guitar1

---------------------------------------------------------------

---------------------------------------------------------------

---------------------------------------------------------------

--0000-0-20-0000-0------------------------0000-0-20-0000-0-----

-------------------32-3333-3-32-2222-2222------------------32--

---------------------------------------------------------------

Guitar2

---------------------------------------------------------------

---------------------------------------------------------------

---------------------------------------------------------------

-0-----0-20-0----0------------------------0---0-20-0-----0-----

-------------------32-3----3-32-2---2----------------------32--

---------------------------------------------------------------

Guitar1

-------------------------------------------------------

-------------------------------------------------------

-------------------------------------------------------

-------------2-2-2-0000-0-20-0000-0--------------------

--3333-3-20--2-2-2------------------32-3333-3-20-2222--

-------------0-0-0-------------------------------------

Guitar2

-------------------------------------------------------

-------------------------------------------------------

-------------------------------------------------------

-------------2-2-2-0---0-20-0-----0--------------------

--3----3-20--2-2-2------------------32-3----3-20-2-----

-------------0-0-0-------------------------------------

Guitar1

-----------------------------------------

-----------------------------------------

-----------------------------------------

------0000-0-20-0000-0-------------------

--2222-----------------32-3333-3-20-2----

-----------------------------------------

Guitar2

-----------------------------------------

-----------------------------------------

-----------------------------------------

------0----0-20-0----0-------------------

--2--------------------32-3----3-20-2----

-----------------------------------------

Outro

Guitar3

-----------------------------------------------------

-----------------------------------------------------

-----------------------------------------------------

--12--10--9--7--10--9--7--5--12--10--9--7--3----1----

-----------------------------------------------------

-----------------------------------------------------

Name:suzuki tetunori

   

-

Get this song at:  amazon.com sheetmusicplus.com

Share your thoughts

0 Comments found