Misc

Misc - G Major bass tab

-----------------0-----

---------0-2-4---------

---0-2-3---------------

-3---------------------

or

-------------------------

-----------2-4-5---------

-----2-3-5---------------

-3-5---------------------

Get this song at:  amazon.com sheetmusicplus.com

Share your thoughts

0 Comments found