Misc

Misc - G Blues Scale guitar tab

e---------------------------------------3--6

B---------------------------------3--6------

G------------------------3--5--6------------

D------------------3--5---------------------

A---------3--4--5---------------------------

E---3--6------------------------------------

e---3---------------------------------------

B------6--3---------------------------------

G------------6--5--3------------------------

D---------------------5--3------------------

A---------------------------5--4--3---------

E------------------------------------6--3---

Get this song at:  amazon.com sheetmusicplus.com

Share your thoughts

0 Comments found