Misc

Misc - D Boogie bass tab

These are all eighth notes except for the last two D's, which are quarters.

G|--------------4-4-5-5-4-4----------|

D|------4-4-7-7-------------7-7-4-4--|

A|--5-5------------------------------| 2x

E|-----------------------------------|

G|-----------------------------------|

D|--------------2-2-3-3-2-2----------|

A|----------5-5-------------5-5------| 1x

E|--3-3-7-7---------------------7-7--|

G|--------------4-4-5-5-4-4----------|

D|------4-4-7-7-------------7-7-4-4--|

A|--5-5------------------------------| 1x

E|-----------------------------------|

G|------4-4-5-5-4-4------------------|

D|--7-7-------------7-7-5-5-3-3-2-2--|

A|-----------------------------------| 1x

E|-----------------------------------|

G|-------------------------|

D|------4-4-5-5-4-4--------|

A|--5-5--------------5--5--| 1x

E|-------------------------|

Get this song at:  amazon.com sheetmusicplus.com

Share your thoughts

0 Comments found