Misc

Misc - Beginner - Arabian Riff guitar tab

Song: Arabian Riff

Tabber: Paul Riegel

Part I:

e|------------------------------------------------|

B|------------------------------------------------|

G|----------------------3/5-5-6-6-5-3-2-----------|

D|--2-3/5-5/6-6-5-3-2-0-----------------3-2-0~~---|

A|------------------------------------------------|

E|------------------------------------------------|

Part II:

e|------------------3-0---------------------------|

B|------------------------------------------------|

G|----0-2h3p2-7-5-3---------2---------------------|

D|--0-------------------3-2---2-3-----------------|

A|--------------------------------3-0-------------|

E|------------------------------------------------|

Part III:

e|--5h6-5h6-5h6p5-3-0-----------------------------|

B|--------------------3-2-2/5---------------------|

G|----------------------------0-3-2---------------|

D|----------------------------------3-2-0~~-------|

A|------------------------------------------------|

E|------------------------------------------------|

You can figure out the rhythm yourself.

It sounds quite good.

Have Fun!

Get this song at:  amazon.com sheetmusicplus.com

Share your thoughts

0 Comments found