Misc

Misc - A Blues Rift By Lee bass tab

tabbed by: Lee (blacktooth90)

i made this and it is so cool

part 1

g-------------------

d-----0-2-3-2-0-----

a---2-----------2---

e-3---------------3-

part 2

g-----0-2-3-2-0-----

d---2-----------2---

a-3---------------3-

e-------------------

and the order is what ever u want have fun with this

Get this song at:  amazon.com sheetmusicplus.com

Share your thoughts

0 Comments found