Misc

Misc - A Blues Riff guitar tab

This a little blues riff someone can play when their bored

( Play at any speed, but sounds better when played at moderate or fast.)

e---------------11------13b---11-----------

b-----11--13----------------------13-13----

g--12--------------------------------------

d------------------------------------------

a------------------------------------------

e------------------------------------------

e---------------11-----13p11--13p11----11--13b-13b-13----------

b-----11--13-----13--------------------13----------------------

g--12----------------------------------------------------------

d--------------------------------------------------------------

a--------------------------------------------------------------

e--------------------------------------------------------------

This is my first tab so I hope you all will enjoy it.

Tabbed out by sportsguy

Get this song at:  amazon.com sheetmusicplus.com

Share your thoughts

0 Comments found