Misc

Misc - 8 Bar Walking Bass Line bass tab

G------------------------

D----------2------------- times 2

A------2-4---4-2---------

E-0-4------------4-------

G----------2-----------

D------2-4---4-2-------

A-0-4------------4-----

E----------------------

G-------------

D-------------

A----6-9-6----

E--7----------

G-------------

D-------------

A----4-7-4----

E--5----------

Its pretty straigt forward but it sounds sweet with a guitar doing a solo

along side it.

CHOW MIENS!!!

Get this song at:  amazon.com sheetmusicplus.com

Share your thoughts

0 Comments found