Misc

Misc - 8 Bar Blues In E bass tab

This is really simple, play it fast and use fingers not a pick

as it sounds better. You can reapeat it as many times as you like,

if you shorten the last note when repeating it should fit. Have

fun with it!

G|-------------------|----------------|--------2-------|----------------|

D|---------------0-1-|2---------------|----2-4---4-2---|--------2-------|

A|-------0-1-2-4-----|----0-1-2-0-----|0-4-----------4-|----2-4---4-2---|

E|---0-4-------------|--4---------4-0-|----------------|0-4-----------4-|

G|-------------------|------------------|----------------|-----------------|

D|-----4-------2-----|------------0-1-2-|2---2---2-2--2-2|-----------------|

A|---2---2-1-0---0-0-|----0-1-2-4-------|----------------|-----------------|

E|-------------------|0-4---------------|----------------|0~---------------|

Please rate xx

Get this song at:  amazon.com sheetmusicplus.com

Share your thoughts

0 Comments found