Misc Unsigned Bands

Misc Unsigned Bands - Von Zeta - Wild Child guitar tab

Intro/Chorus

Guitar 1

E|--------------------------------------------------------------------|

B|--------------------------------------------------------------------|

G|-----------------------------7---------7----------------------------|

D|9----------------------------5---------5----------------------------|

A|7--99------11--111111----77-----7-7------7-----5--------------------|

E|---77------9---9-9-9-----55-----5-5------5-----3--------------------|

Guitar 2

E|--------------------------------------------------------------------|

B|-9-77-10-10-10-10-97/5-7/9-9^7/5----9-77----------------------------|

G|--------------------------------------------------------------------|

D|--------------------------------------------------------------------|

A|--------------------------------------------------------------------|

E|--------------------------------------------------------------------|

*****repeat a few times

E|--------------------------------------------------------------------|

B|--------------------------------------------------------------------|

G|--------------------------------------------------------------------|

D|-9------------------------------------------------------------------|

A|-7--9-99-----7-7-7--------------------------------------------------|

E|----7-77-----5-5-5--------------------------------------------------|

SOLO

E|------------------------------12^9--------------------14b-------------|

B|-------------------------10-12----12^9-12^9---------------------------|

G|----------------9-11-9-11-------------------11^9-11b------------------|

D|------------9-11------------------------------------------------------|

A|----7-9-9/11----------------------------------------------------------|

E|7-9-------------------------------------------------------------------|

E|--------------------------------------------------------------------|

B|-9-77-10-10-10-10-97/5-7/9-9^7/5----9-77----------------------------|

G|--------------------------------------------------------------------|

D|--------------------------------------------------------------------|

A|--------------------------------------------------------------------|

E|--------------------------------------------------------------------|

*******repeat intro/chorus til end of songAdded by tabs-database.com and our distinguished partners

Get this song at:  amazon.com

Share your thoughts

0 Comments found