Misc Unsigned Bands

Misc Unsigned Bands - Verbatym - Magna Carta guitar tab

BAND : Verbatym

SONG : Magna Carta

Tuning : drop-d (d a d g b e)

2 guitars

Q=180

[INTRO]

GTR 1- (make the 3 kinda quiet)

|-----------------|-----------------|-----------------|-----------------|

|-3-3-------------|-----------------|-----------------|-----------------|

|-----------------|-----------------|-----------------|-----------------|

|-4-4-x-4-4-x-4-4-|-x-x-x-x-x-x-x-x-|-4-4-x-4-4-x-4-4-|-x-x-x-x-x-x-x-x-|

|-2-2-x-2-2-x-2-2-|-x-x-x-x-x-x-x-x-|-2-2-x-2-2-x-2-2-|-x-x-x-x-x-x-x-x-|

|-----------------|-----------------|-----------------|-----------------|

|-----------------|-----------------|-----------------|-----------------|

|-3-3-------------|-----------------|-----------------|-----------------|

|-----------------|-----------------|-----------------|-----------------|

|-4-4-x-4-4-x-4-4-|-x-x-x-x-x-x-x-x-|-4-4-x-4-4-x-4-4-|-x-x-x-x-x-x-x-x-|

|-2-2-x-2-2-x-2-2-|-x-x-x-x-x-x-x-x-|-2-2-x-2-2-x-2-2-|-x-x-x-x-x-x-x-x-|

|-----------------|-----------------|-----------------|-----------------|

GTR 2 HALF REST

|-----------------|-----------------|-----------------|-----------------|

|-----------------|-----------------|-----------------|-----------------|

|-----------------|-----------------|-----------------|--------\\2-------|

|-----------------|-----------------|-----------------|--------\\2-------|

|-----------------|-----------------|-----------------|--------\\0-------|

|-----------------|-----------------|-----------------|-----------------|

SLIDE IN

|-----------------|-----------------|-----------------|-----------------|

|-3-3-------------|-------------7---|-----------------|-----------------|

|-----------------|-----------------|-----------------|-----------------|

|-4-4-x-4-4-x-4-4-|-x-x-x-x---------|-4-4-x-4-4-x-4-4-|-x-7-x-7-7-9-9---|

|-2-2-x-2-2-x-2-2-|-x-x-x-x-2-4-5---|-2-2-x-2-2-x-2-2-|-x-5-x-5-5-7-7---|

|-----------------|-----------------|-----------------|-----------------|

|

| Let Ring-----------------> Let Ring----------------->

|---------0-------|-(0)-------------|---------0-------|-----------------|

|-----3-----------|-----------------|-----5-----------|-----------------|

|-4---------------|-----------------|-2---------------|-----------------|

|-----------------|-----------------|-----------------|-----------------|

|-----------------|-----------------|-----------------|-----------------|

|-----------------|-----------------|-----------------|-----------------|

|-----------------|-----------------|-----------------|-----------------|

|-3-3-------------|-------------7---|-----------------|-----------------|

|-----------------|-----------------|-------4-4---2---|---------x-------|

|-4-4-x-4-4-x-4-4-|-x-x-x-x---------|-2-2-x-2-2-x-0-4-|---------x-------|

|-2-2-x-2-2-x-2-2-|-x-x-x-x-2-4-5---|-0-0-x-----x---4-|---------x-------|

|-----------------|-----------------|-----------------|-----------------|

|

| Let Ring----------------->

|---------0-------|-(0)-------------|---------0-----0-|-----------------|

|-----3-----------|-----------------|-----5-------5---|-----------------|

|-4---------------|-----------------|-2---------------|-----------------|

|-----------------|-----------------|-----------------|-----------------|

|-----------------|-----------------|-----------------|-----------------|

|-----------------|-----------------|-----------------|-----------------|

|-----------------|-----------------|-----------------|-----------------|

|-------------7-7-|---7-7---7-7-7-7-|-5-5---5-5-------|-----------------|

|-4-4---4-4---x-x-|---x-x---x-x-x-x-|-x-x---x-x---7-7-|---7-7---7-7-7-7-|

|-x-x---x-x---4-4-|---4-4---4-4-4-4-|-2-2---2-2---x-x-|---x-x---x-x-x-x-|

|-2-2---2-2-------|-----------------|-------------5-5-|---5-5---5-5-5-5-|

|-----------------|-----------------|-----------------|-----------------|

|

|

|-----------------|-----------------|-----------------|-----------------|

|-----------------|-----------------|-----------------|-----------------|

|-4-4---4-4---4-4-|---4-4---4-4-4-4-|-2-2---2-2-------|-----------------|

|-4-4---4-4---4-4-|---4-4---4-4-4-4-|-2-2---2-2---5-5-|---5-5---5-5-5-5-|

|-2-2---2-2---2-2-|---2-2---2-2-2-2-|-0-0---0-0---5-5-|---5-5---5-5-5-5-|

|-----------------|-----------------|-------------5-5-|---5-5---5-5-5-5-|

|-----------------|-----------------|-----------------|-----------------|

|-------------7-7-|---7-7---7-7-7-7-|-5-5---5-5-------|-----------------|

|-4-4---4-4---x-x-|---x-x---x-x-x-x-|-x-x---x-x---7-7-|---------x-------|

|-x-x---x-x---4-4-|---4-4---4-4-4-4-|-2-2---2-2---x-x-|---------x-------|

|-2-2---2-2-------|-----------------|-------------5-5-|---------x-------|

|-----------------|-----------------|-----------------|-----------------|

|

|

|-----------------|-----------------|-----------------|-----------------|

|-----------------|-----------------|-----------------|-----------------|

|-4-4---4-4---4-4-|---4-4---4-4-4-4-|-2-2---2-2-------|-----------------|

|-4-4---4-4---4-4-|---4-4---4-4-4-4-|-2-2---2-2---5-5-|-----------------|

|-2-2---2-2---2-2-|---2-2---2-2-2-2-|-0-0---0-0---5-5-|-----------------|

|-----------------|-----------------|-------------5-5-|-----------------|

Added by tabs-database.com and our distinguished partners

Get this song at:  amazon.com sheetmusicplus.com

Share your thoughts

0 Comments found