Misc Unsigned Bands

Misc Unsigned Bands - Unopened Lies - My Pain guitar tab

Band:Unopened Lies

Song:My Pain(intro)

guitar 1=unknown

guitar 2=unknown

.=palm mute

/=slide

sp=sweep pick

h=hammer

(guitar1) (repeat three times)

sp

|-13---------13-13---------13-13---------13---|

|---14-----14-----14-----14-----14-----14-----|

|-----15-15---------15-15---------15-14-------|

|---------------------------------------------|

|---------------------------------------------|

|---------------------------------------------|

(guitar2)

|-----------------------------------------------------------------------|

|-----------------------------------------------------------------------|

|-----------------------------------------------------------------------|

|-----------------------------------------------------------------------|

|-0-0-0-0-0-0-0-0--8-8-8-8-8-8-8-8--3-3-3-3-3-3-3-3--5/-6-6-6-6-6-6-6-6-|

|-0-0-0-0-0-0-0-0--8-8-8-8-8-8-8-8--3-3-3-3-3-3-3-3--5/-6-6-6-6-6-6-6-6-|

(guitar1) .....

|-------------------------------------------------------|--------------------|

|-------------------------------------------------------|--------------------|

|---7-7-7-7-7-7-7-7/-10-10-10/-9-9-9-9/-3-3-3-3-3-3-3-3-|-------10/----(two--|

|---x-x-x-x-x-x-x-x--x-x-x-x---x-x-x-x--x-x-x-x-x-x-x-x-|-------x------------|(times)

|-0h5-5-5-5-5-5-5-5/-8-8-8-8/--7-7-7-7/-1-1-1-1-1-1-1-1-|-00000-8/-----------|

|-0-----------------------------------------------------|-00000--------------|

(guitar2)

alternate picking

.... .... .... .... .... .... .... .... .....

|-------------------------------------------------------|--------------------|

|-------------------------------------------------------|--------------------|

|-------------------------------------------------------|--------------(two--|

|-------------------------------------------------------|--------------------|(times)

|-8888--3333--6666--2222--8888--3333--6666--2222--------|-00000-12/----------|

|-8888--3333--6666--2222--8888--3333--6666--2222--------|-00000-12/----------|Added by tabs-database.com and our distinguished partners

Get this song at:  amazon.com

Share your thoughts

0 Comments found