Misc Unsigned Bands

Misc Unsigned Bands - The Sellouts - Nameless guitar tab

Tuning: (eb,bb,gb,db,ab,E)(eflat,bflat, gflat, dflat, a flat, E)

Intro part 1(X2)(distortion)(Harmonics)

e|---------------------------------------------------------------------------|

B|------------------------------------------------------------5--------------|

G|5-5-4-5-4-5-----5-5-4-5-4-5-----5-5-4-5-4-5-----5-5-4-5-4-5----------------|

D|------------5---------------5---------------5------------------------------|

A|---------------------------------------------------------------------------|

E|---------------------------------------------------------------------------|

1 + 2 + 3 + 4 + 1 + 2 + 3 + 4 + 1 + 2 + 3 + 4 + 1 + 2 + 3 + 4 +

Intro part 2(X1)(distortion)

e|---------------------------------------------------------------------------|

B|---------------------------------------------------------------------------|

G|----------3-4-5-----------3-4-5-----------3-4-5-----------3-4-5------------|

D|----3-4-5-----------3-4-5-----------3-4-5-----------3-4-5------------------|

A|3-5-------------3-5-------------3-5-------------3-5------------------------|

E|---------------------------------------------------------------------------|

1 + 2 + 3 + 4 + 1 + 2 + 3 + 4 + 1 + 2 + 3 + 4 + 1 + 2 + 3 + 4 +

verse(X8)(distortion)

e|---------------------------------------------------------------------------|

B|---------------------------------------------------------------------------|

G|2-------x-----3-2-------x-----3-2-------x-----3-----------3-4-5------------|

D|2---0---x-3-5---2---0---x-3-5---2---0---x-3-5-------3-4-5------------------|

A|0---0-----------0---0-----------0---0-----------3-5------------------------|

E|----3---------------3---------------3--------------------------------------|

1 + 2 + 3 + 4 + 1 + 2 + 3 + 4 + 1 + 2 + 3 + 4 + 1 + 2 + 3 + 4 +

Chorus(X8)(distortion)

e|----------------|

b|----------------|

g|2--244446666x--3|

d|2--244446666x35-|

a|0--022224444----|

E|----------------|

1 + 2 + 3 + 4 +

Outro(X6)(DIstortion)

e|---------------------------------------------------------------|

B|---------------------------------------------------------------|

G|----------3-4-5-----------3-4-5--------------------------------|

d|----3-4-5-----------3-4-5--------------------------------------|

A|3-5-------------3-5-------------3-5-----3-5-0---3-5-----3-5-0--|

E|---------------------------------------------------------------|

1 + 2 + 3 + 4 + 1 + 2 + 3 + 4 + 1 + 2 + 3 + 4 + 1 + 2 + 3 + 4 +

(PM----------------------------)

end with

e|---------------------------------------------------------------------------|

B|---------------------------------------------------------------------------|

G|----------3-4-5-----------3-4-5--------------------------------------------|

D|----3-4-5-----------3-4-5--------------------------------------------------|

A|3-5-------------3-5--------------------------------------------------------|

E|---------------------------------------------------------------------------|

1 + 2 + 3 + 4 + 1 + 2 + 3 + 4 + let ring-----------------------------

(get slight feedback)

Intro part 1

intro part 2

verse

chorus

intro part 2

verse

chorus

solo

chorus

intro part 2

verse

chorus

outroAdded by tabs-database.com and our distinguished partners

Get this song at:  amazon.com

Share your thoughts

0 Comments found