Misc Unsigned Bands

Misc Unsigned Bands - The Pagans - I Wont Make It Through Bass guitar tab

Capo On 3rd Fret

Intro

G|---|

D|---|

A|---|

E|-3-|

Section 1 Part 1

G|---------|

D|---------|

A|---------|

E|-3--4--8-| x5

Section 1 Part 2

G|---------|

D|---------|

A|---8---6-|

E|-3---3---| x4

G|---------------------------------|

D|---------------------------------|

A|-------------------------------6-|

E|-3--4--8--3--4--8--3--3--4--8----|

Interlude

G|-----------|

D|-8-7---8---|

A|-----6---5-|

E|-----------|

Section 2

G|------------|

D|------------|

A|-------6--9-|

E|-3--6-------| x6

G|---------------|

D|---------------|

A|-8---6---8---6-|

E|---3---3---3---|

Section 1 Part 1

G|---------|

D|---------|

A|---------|

E|-3--4--8-| x5

Section 1 Part 2

G|---------|

D|---------|

A|---8---6-|

E|-3---3---| x4

G|---------------------------------|

D|---------------------------------|

A|-------------------------------6-|

E|-3--4--8--3--4--8--3--3--4--8----|

Interlude

G|-----------|

D|-8-7---8---|

A|-----6---5-|

E|-----------|

Section 2

G|------------|

D|------------|

A|-------6--9-|

E|-3--6-------| x6

G|---------------|

D|---------------|

A|-8---6---8---6-|

E|---3---3---3---|

Solo

G|---------|

D|---------|

A|---------|

E|-3--4--8-|

G|------------|

D|------------|

A|----------6-|

E|-3--4--8----|

Section 3

G|------|

D|------|

A|----6-|

E|-3----| x4

Section 4

G|---|

D|---|

A|-3-|

E|---|

G|---|

D|---|

A|-6-|

E|---|

G|---------|

D|---------|

A|---------|

E|-3--4--8-| x2

G|---------|

D|---------|

A|-6---6---|

E|---3---4-|

Interlude

G|-----------|

D|-8-7---8---|

A|-----6---5-|

E|-----------|Added by tabs-database.com and our distinguished partners

Get this song at:  amazon.com

Share your thoughts

0 Comments found