Misc Unsigned Bands

Misc Unsigned Bands - The Glory Sea - The Great Divide guitar tab

The Great Divide – The Glory Sea

Tabbed by Durden e. Singer

Please email comments or complaints to webmaster at tabs-database.com.com

Andy plays (Fig 3) differently, but he hits the same notes. This way's easier.

Capo 4

All tabs and chords relative to Capo unless stated otherwise

Intro:

Guitar 2 (Fig 1):

---------------------------------|

---1-----1---------1-----1-------|

-----2-----2---2-----2-----2---2-| x4

-2-----2-----2---------2-----2---|

---------------------------------|

---------------------------------|

Continue Fig 1 through intro and verses

Guitar 1 (Fig 2): Am F Am F G x2

Verse 1:

Am F Am F Am

Even if I gained the whole world, what if I lost my only soul

F Am F G

For pleasure and power's no prize to throw, or so I'm told

Am F Am

For what's a soul to one who lies,

F Am

Who cheats and steals and wastes his life

F Am F G

Searching for what can't satisfy

Chorus:

Guitar 2 (no Capo) (Fig 3):

-------12-------12----12-------12-------12----12-11---------------------------|

----------------------------------------------------14-----14-14-12-14-12-----|

-13-13----13-13----13----13-13----13-13----13----------13------------------14-|

------------------------------------------------------------------------------|

------------------------------------------------------------------------------|

------------------------------------------------------------------------------|

C Am G C

And even if I was the only man alive, would you still have died?

C Am G C

And even if I could drain the oceans dry, to bridge this great divide

C Am G F

Would you come down, would you tell me why I am worth the price

G (Fig 2)x2

Worth your price

Verse 2:

Am F Am F Am

What is this debt that I now owe? What is this grace which you bestow?

F Am F G

A crimson heart now white as snow, or so I'm told

Am F Am F Am

'Cause who are you to save my life? And who are you to let me die?

F Am F G

Nailed with thieves on either side

Chorus

(Fig 1)&(2) x2

(Fig 3) x2

Guitar 2 play (Fig 3) over this:

(C) (Am) (G) (C)

And even if I was the only man alive, would you still have died?

(C) (Am) (G) (C)

And even if I was the only man alive, would you still have died?

Guitar 1 come in

C Am G C

And even if I was the only man alive, would you still have died?

C Am G C

And even if I was the only man alive, would you still have died?

C Am G C

And even if I could drain the oceans dry, to bridge this great divide

C Am G C

And even if I could drain the oceans dry, to bridge this great divide

Guitars cut, singing only over Drums and Bass

(C) (Am) (G) (C)

And even if I could drain the oceans dry, to bridge this great divide

(C) (Am) (G) (C)

And even if I could drain the oceans dry, to bridge this great divideAdded by tabs-database.com and our distinguished partners

Get this song at:  amazon.com

Share your thoughts

0 Comments found