Misc Unsigned Bands

Misc Unsigned Bands - Superstar Kz - Freestailo guitar tab

-------------------------------------------------------------------------------

FREESTAILO - Superstar KZ

-------------------------------------------------------------------------------

Tabbed by: RubicK

Tuning: Standart

t - Tap on the wooden body of guitar

e|---------------------------------------------------------------------------|

B|---------------------------------------------------------------------------|

G|---------------------------------------------------------------------------|

D|-----12----12---8---8---10---10----12----12---8---8---10---10----12----12--|

A|--10----10----6---6---8----8----10----10----6---6---8----8----10----10-----|

E|---------------------------------------------------------------------------|

e|---------------------------------------------------------------------------|

B|---------------------------------------------------------------------------|

G|---------------------------------------------------------------------------|

D|--12-12-12----12---12---12---12----6-6-6-6-6-------------------------------|

A|--10-10-10----10---10---10---10----8-8-8-8-8-------------------------------|

E|---------------------------------------------------------------------------|

Fut Fut Fut Fut FreeStailo

e|---------------------------------------------------------------------------|

B|---------------------------------------------------------------------------|

G|---------------------------------------------------------------------------|

D|--10---10---10---10---10----12----12---------------------------------------|

A|--8----8----8----8----8-----10----10---------------------------------------|

E|---------------------------------------------------------------------------|

Fut Fut Fut Fut Free Stai Lo

e|---------------------------------------------------------------------------|

B|---------------------------------------------------------------------------|

G|---------------------------------------------------------------------------|

D|------12------12-----8-----8-----10-----10------12------12-----------------|

A|--10------10------6-----6-----8------8------10------10---------------------|

E|---------------------------------------------------------------------------|

ła ka ma ka dam du tu da ri bu ri dam du tu

e|---------------------------------------------------------------------------|

B|---------------------------------------------------------------------------|

G|---------------------------------------------------------------------------|

D|------12------12-----8-----8-----10-----10------12-------------------------|

A|--10------10------6-----6-----8------8------10------t---t---t---t----------|

E|---------------------------------------------------------------------------|

- ti ri ti tam du tu ti ri ti ri dam du ti o ooo!

e|---------------------------------------------------------------------------|

B|---------------------------------------------------------------------------|

G|---------------------------------------------------------------------------|

D|--t--12--t--12--t12t--12--t--8--t--8--t--10--t--10-------------------------|

A|--t--10--t--10--t10t--10--t--6--t--6--t--8---t--8--------------------------|

E|---------------------------------------------------------------------------|

e|---------------------------------------------------------------------------|

B|---------------------------------------------------------------------------|

G|---------------------------------------------------------------------------|

D|--t--12--t--12--t--6--t--6--t--10--t--10--t--12--t--12--t--12--t-----------|

A|--t--10--t--10--t--8--t--8--t--8---t--8---t--10--t--10--t--10--t-----------|

E|---------------------------------------------------------------------------|

e|---------------------------------------------------------------------------|

B|---------------------------------------------------------------------------|

G|---------------------------------------------------------------------------|

D|--t---12---t---12---t---12---t---12---t---8---t---8---t---8---t---8--------|

A|--t---10---t---10---t---10---t---10---t---6---t---6---t---6---t---6--------|

E|---------------------------------------------------------------------------|

Łodama sz ka bur du diem koroda łuskiej bur du diem

e|---------------------------------------------------------------------------|

B|---------------------------------------------------------------------------|

G|---------------------------------------------------------------------------|

D|--t---10---t---10---t---10---t---10---t---12---t---12---t---12---t---12----|

A|--t---8----t---8----t---8----t---8----t---10---t---10---t---10---t---10----|

E|---------------------------------------------------------------------------|

aj ma ła jem kos ta rał kar de ryr dy kyl byl giem

e|---------------------------------------------------------------------------|

B|---------------------------------------------------------------------------|

G|---------------------------------------------------------------------------|

D|--t---10---t---12---t---6---t---6---t---10---t---10---t---12---t---12------|

A|--t---10---t---10---t---8---t---8---t---8----t---8----t---10---t---10------|

E|---------------------------------------------------------------------------|

ło o ło o jae sij sing bjee bern

e|---------------------------------------------------------------------------|

B|---------------------------------------------------------------------------|

G|---------------------------------------------------------------------------|

D|--t---12---t---12---t---12---t---8---t---8---t---10---t---10---------------|

A|--t---10---t---10---t---10---t---6---t---6---t---8----t---8----------------|

E|---------------------------------------------------------------------------|

tas tak sing mar ma kie sing bieł

e|---------------------------------------------------------------------------|

B|---------------------------------------------------------------------------|

G|---------------------------------------------------------------------------|

D|--t---12---t---12---t---8---t---8---t---10---t---10---t---12---t---12------|

A|--t---10---t---10---t---6---t---6---t---8----t---8----t---10---t---10------|

E|---------------------------------------------------------------------------|

ti ri ti ri dam tun tun ta ri du ri dam ri ti

e|---------------------------------------------------------------------------|

B|---------------------------------------------------------------------------|

G|---------------------------------------------------------------------------|

D|--t---12---t---12---t---8---t---8---t---10---t---10---t---12---t---12------|

A|--t---10---t---10---t---6---t---6---t---8----t---8----t---10---t---10------|

E|---------------------------------------------------------------------------|

ri ti ri ti dam tu ti di ri di ri dam do ti

Added by tabs-database.com and our distinguished partners

Get this song at:  amazon.com

Share your thoughts

0 Comments found