Misc Unsigned Bands

Misc Unsigned Bands - Ssg - Unveiling Their Secret guitar tab

-------------------------------------------------------------------------------

Unveiling Their Secret - S.S.G

-------------------------------------------------------------------------------

Tabbed by: Zack

Email: webmaster at tabs-database.com.com

Tuning: Drop D

Guitar One

e|---------------------------------------------------------|

B|---------------------------------------------------------|

G|---------------------------------------------------------|

D|---9-/-7-5-/-4--9-/7-5-/-4--9-/-7-5-/-4--2-2---4-4---5b--|

A|---------------------------------------------------------|

E|---------------------------------------------------------|

Guitar Two

e|---------------------------------------------------------|

B|---------------------------------------------------------|

G|---------------------------------------------------------|

D|---------------------------------------------------------|

A|---7-/-5-3-/-2--7-/5-3-/-2--7-/-5-3-/-2--0-0---2-2---3b--|

E|---------------------------------------------------------|

Guitar One

e|---------------------------------------------------------|

B|---------------------------------------------------------|

G|---------------------------------------------------------|

D|---7-7-5-7-8-7-5-7-7-7-5-7-8-7-5-7---5-5--7-7--5-5--7-7--|

A|---------------------------------------------------------|

E|---------------------------------------------------------|

Guitar Two

e|---------------------------------------------------------|

B|---------------------------------------------------------|

G|---------------------------------------------------------|

D|---------------------------------------------------------|

A|---5-5-3-5-6-5-3-5-5-5-3-5-6-5-3-5---3-3--5-5--3-3--5-5--|

E|---------------------------------------------------------|

Guitar One

e|---------------------------------------------------------|

B|---------------------------------------------------------|

G|---------------------------------------------------------|

D|---7-7-5-7-8-7-5-7-7-7-5-7-8-7-5-7---5-5--7-7--5-5--7-7--|

A|---------------------------------------------------------|

E|---------------------------------------------------------|

Guitar Two

e|---------------------------------------------------------|

B|---------------------------------------------------------|

G|---------------------------------------------------------|

D|---------------------------------------------------------|

A|---5-5-3-5-6-5-3-5-5-5-3-5-6-5-3-5---3-3--5-5--3-3--5-5--|

E|---------------------------------------------------------|

Guitar One

e|----------------------------------------------|

B|------------------------------------------8*--|

G|-------------------------10--9--7--5--4-------|

D|---5h7p5h7p5--5h7p5h7p5-----------------------|

A|----------------------------------------------|

E|----------------------------------------------|

Guitar Two

e|----------------------------------------------|

B|----------------------------------------------|

G|------------------------------------------6*--|

D|--------------------------8--7--5--3--2-------|

A|---3h5p3h5p3--3h5p3h5p3-----------------------|

E|----------------------------------------------|

END

| / slide up

| \\ slide down

| h hammer-on

| p pull-off

| b bend

| * pinch harmonics

| x Mute note

===============================================================================Added by tabs-database.com and our distinguished partners

Get this song at:  amazon.com

Share your thoughts

0 Comments found