Misc Unsigned Bands

Misc Unsigned Bands - Sonic Threesome - Peach Intro guitar tab

Band : Sonic Threesome

Song : Peach

guitar 1:

E--------------------------------------------------------------------

B--------------------------------------------------------------------

G--------9-----6----------------------------------------------------- X2

D-------9-----6------6----------6----9-------------------------------

A------7-----4-----6-----------6-----9-------------------------------

E-----------------4-------4--4-----7---------------------------------

E--------------------------------------------------------------------

B--------------------------------------------------------------------

G------9-9-9-9-X2-6-6-6-6-X2----------------------------------------- X2

D------9-9-9-9----6-6-6-6----6-6-6-6--x2-9-9-9-9-x2------------------

A------7-7-7-7----4-4-4-4----6-6-6-6-----9-9-9-9---------------------

E----------------------------4-4-4-4-----7-7-7-7---------------------

guitar 2:

E--------------------------------------------------------------------

B--------------------------------------------------------------------

G------9-9-9-9-X2-6-6-6-6-X2-13-13-13-13-X2-11-11-11-11-------------- X4

D------7-7-7-7----6-6-6-6----13-13-13-13----11-11-11-11--------------

A------7-7-7-7----4-4-4-4----11-11-11-11----9--9--9--9---------------

E--------------------------------------------------------------------

HTTP://WWW.EXPAGE.COM/SIONJAMES3

Get this song at:  amazon.com

Share your thoughts

0 Comments found