Misc Unsigned Bands

Misc Unsigned Bands - Socrate Silence - Whos Gonna Say Anything guitar tab

this is a home town band so if u guys wanna here some of our stuff Emial me at

or im also on the msn messanger (Elopez1989@aol.com)

we have a couple more songs i got to tab them though ^-^!

Artist:Socrate Silence (Eddie Lopez, Kevin Ky, Adrian Ky, Manny Ky, Hector Cirerro)

Song: who's gonna say anthing?

Tuning Drop D (DBGDAe)

Intro/Verse

Guitar 1:

e[-----------------------------------------------------------------------]

A[-----------------------------------------------------------------------]

D[-----------------------------------------------------------------------]

G[--4-4-4-4-4-4-4--5-5-5-5-5-5-5--7-7-7-7-7-7-7-7-7-7-7-7-] Repeat---] x2

B[--2-2-2-2-2-2-2--5-5-5-5-5-5-5--5-5-5-5-5-5-5-5-5-5-5-5----------------]

D[--0-0-0-0-0-0-0--5-5-5-5-5-5-5--0-0-0-0-0-0-0-0-0-0-0-0----------------]

-----pm---------------pm---------------pm--------------------------------]

Guitar2:

e[--0-7-8-7-5---5-3-5-3-0-----0-7-8-7-5---5-3-5-3-0---3-5-7-8-7-8---7-5-3-5-3-0--]

A[-------------------------------------------------------------------------------]

D[-------------------------------------------------------------------------------]

G[---------0----0------------0-0-------------0-------------0---------------0-----] Repeat

B[-----------0-------------------------------------------------------------------]

D[------------0------------------------------------------------------------------]

Verse: x4

Chorus:

Gutiar1: (distorted)

e[-0-----------------0--------------------0----------------------0-----------------0--]

A[------------------------------------------------------------------------------------]

D[------------------------------------------------------------------------------------]

G[---4-4-4-4-4-4-4--5-5-5-5-5-5-5-5--7-7-7-7-7-7-7-7-7--5-5-5-5-5-5-5--2-2-2-2-2-2-2--]

B[---2-2-2-2-2-2-2--5-5-5-5-5-5-5-5--5-5-5-5-5-5-5-5-5--5-5-5-5-5-5-5--2-2-2-2-2-2-2--]

D[---0-0-0-0-0-0-0--5-5-5-5-5-5-5-5--0-0-0-0-0-0-0-0-0--5-5-5-5-5-5-5--0-0-0-0-0-0-0--]

------pm---------------pm-----------------pm--------------------pm---------------pm---]

Guitar2:

e[-7----7----7----5-----5----5-----5---3----3-----3-----5-----5------5---7-----------]

A[--5-5--5-5--5----5-5--5-5--5-5--5---3-3--3-3--3-3---3-3---3-3---5-7----------------]

D[-----------------------------------------------------------------------------------]

G[-----------------------------------------------------------------------------------]

B[-----------------------------------------------------------------------------------]

D[--0---0---0---0---0---0---0---0---0---0---0---0---0---0---0---0---0---0------------]

Verse x2

Bridge x2

Guitar1:

e[-------------------------------0-------------------------0-----------------------------]

A[-------------0------------------------------0-------------------------0----------------]

D[---------------------------------------------------------------------------------------]

G[----0---0---1---0---0---0---1---0---0---1---0---0---1---0---0---1---0---0--------------]

B[--0---0---0---0---0---0---0---0---0---0---0---0---0---0---0---0---0---0---0------------]

D[--0------------0----------------0------------0------------0------------0---------------]

Guitar2: (distorted)

e[-------------------------------------0-----------------------------------------0--]

A[----------------------------------------------------------------------------------]

D[------------------0-----------------0-------------------0--------------------0----]

G[-4-4-4-4-4-4-4--5-5-5-5-5-5-5--7-7-7-7-7-7-7-7--5-5-5-5-5-5-5-5--7-7-7-7-7-7-7-7--]

B[-2-2-2-2-2-2-2--5-5-5-5-5-5-5--5-5-5-5-5-5-5-5--5-5-5-5-5-5-5-5--5-5-5-5-5-5-5-5--]

D[-0-0-0-0-0-0-0--5-5-5-5-5-5-5--0-0-0-0-0-0-0-0--5-5-5-5-5-5-5-5--0-0-0-0-0-0-0-0--]

Verse x2

Intro (Guitar 1 only)

Ending x2 (clean)

e[------------------------------]

A[------------------------------]

D[------------------------------]

B[--4-4-4-4-4--5-5-5-5-5--------]

D[--2-2-2-2-2--5-5-5-5-5--------]

D[--0-0-0-0-0--5-5-5-5-5--------]

Get this song at:  amazon.com

Share your thoughts

0 Comments found