Misc Unsigned Bands

Misc Unsigned Bands - Skanadians - Jennifers In Trouble guitar tab

based in winnipeg manitoba candad (info in site) i wrote the song so i know its

right. Heres our site( i know its expage were in the middle 0f making a .com site):

http://expage.com/skanadians

Skanadians Jennifers in trouble

Into/chorus

|------------------------------------------------------|

|------------------------------------------------------|

|------------------------------------------------------|

|-------------------0-0--------------------------------|

|-0-----0-0--0-----------------------------------------|x2

|--10-10--------10-10----------------------------------|

Verse 1

|------------------------------------------------------|

|------------------------------------------------------|

|------------------------------------------------------|

|-4-4--5-5--3--6---------------------------------------|

|-3-3--4-4--2--5---------------------------------------|x4

|-3-3--4-4--2--5---------------------------------------|

Chorus

|------------------------------------------------------|

|------------------------------------------------------|

|------------------------------------------------------|

|-------------------0-0--------------------------------|

|-0-----0-0--0-----------------------------------------|x2

|--10-10--------10-10----------------------------------|

Verse 2

|------------------------------------------------------|

|------------------------------------------------------|

|------------------------------------------------------|

|-0-0---2-2--4-4--8-6-4--------------------------------|

|-0-0---1-1--3-3--7-5-3--------------------------------|x2

|-0-0---1-1--3-3--7-5-3--------------------------------|

Chorus

|------------------------------------------------------|

|------------------------------------------------------|

|------------------------------------------------------|

|-------------------0-0--------------------------------|

|-0-----0-0--0-----------------------------------------|x2

|--10-10--------10-10----------------------------------|

Verse 3

|------------------------------------------------------|

|------------------------------------------------------|

|------------------------------------------------------|

|-4-4--5-5--3--6---------------------------------------|

|-3-3--4-4--2--5---------------------------------------|x4

|-3-3--4-4--2--5---------------------------------------|

Chorus

|------------------------------------------------------|

|------------------------------------------------------|

|------------------------------------------------------|

|-------------------0-0--------------------------------|

|-0-----0-0--0-----------------------------------------|x2

|--10-10--------10-10----------------------------------|

Get this song at:  amazon.com

Share your thoughts

0 Comments found