Misc Unsigned Bands

Misc Unsigned Bands - Rise To The Fallen - Idols No More Bass guitar tab

Rise To The Fallen- Idols No More

Bassist-Dan Crisafulli

Tuning- Drop C (CGCF)

Main Riff

[--------------------------------------------------------]

[--------------------------------------------------------]

[--------------------------------------------------------]

[-0-00-000-000-0-00-000-000-/8-88-888-888\\\\7\\\\3~---------]

Riff #2

[--------------------------------------------------------]

[--------------------------------------------------------]

[--------------------1/3-----------------------2---------]

[0-0-0-0-0-0-0-10h12-----5~--0-0-0-0-0-0-0-3h5---1-0~----]

Riff #2 Variation

[--------------------------------------------------------]

[--------------------------------------------------------]

[--------------------1/3---------------------8---10------]

[0-0-0-0-0-0-0-10h12-----5~--0-0-0-0-0-0-0-7---8----10-12]

Prelude(play kind of fast)

[-------------------]

[-------------------]

[-------------------]

[-7-8-5-7-3-5-2-3-0-]

Short Guitar thing...

Breakdown/Whole Middle Part of Song

[--------------------------------------------------------]

[--------------------------------------------------------]

[--------------------------------------------------------]

[0-00-000-000-0-000-000-000-0-00-000-000-0-000-000-000---]

repeat that like 400(not really) times with occasional stopping for guitars thenback to...

[--------------------------------------------------------]

[--------------------------------------------------------]

[--------------------------------------------------------]

[-0-00-000-000-0-00-000-000-/8-88-888-888\\\\7\\\\3~---------]

[--------------------------------------------------------]

[--------------------------------------------------------]

[--------------------1/3-----------------------2---------]

[0-0-0-0-0-0-0-10h12-----5~--0-0-0-0-0-0-0-3h5---1-0~----]

[--------------------------------------------------------]

[--------------------------------------------------------]

[--------------------1/3---------------------8---10------]

[0-0-0-0-0-0-0-10h12-----5~--0-0-0-0-0-0-0-7---8----10-12]

Add a few moe preludes in there and get the order down and your set

PEACE

RTTF

Added by tabs-database.com and our distinguished partners

Get this song at:  amazon.com

Share your thoughts

0 Comments found