Misc Unsigned Bands

Misc Unsigned Bands - Reduced To Clear - Nerd Boy Party guitar tab

this is the second song for "reduced to clear".

-------------------------------------------------------------------------------

Nerd Boy Party - Reduced to Clear

-------------------------------------------------------------------------------

Tabbed by: Richy

Email:Mrichard778@aol.com

Tuning: eBGDAD

160 BPM USE HEAVY DISTORTION!! ENJOY! (fast drum beat to acompany)

INTRO

e|-----------------------------------------------------------------------|

B|-----------------------------------------------------------------------|

G|-----------------------------------------------------------------------|

D|-2-2-0-0-2-2-0-0-2-2-0-0-5-5-55-5--7-7-77-7----------------------------|

A|-----------------------------------------------------------------------|

D|-----------------------------------------------------------------------|

|---p.m.----------------------------------|

e|-------------------------------------------x2-|------------------------|

B|----------------------------------------------|------------------------|

G|----------------------------------------------|------------------------|

D|-2-2-0-0-2-2-0-0-2-2-0-0-5-5-55-5-7-7-77-7----|-2--------X-X-X-X-------|

A|-2-2-0-0-2-2-0-0-2-2-0-0-5-5-55-5-7-7-77-7----|-2--------X-X-X-X-------|

D|-2-2-0-0-2-2-0-0-2-2-0-0-5-5-55-5-7-7-77-7----|-2--------X-X-X-X-------|

VERSE

e|--------------------------------------------------------------------------------|

B|--------------------------------------------------------------------------------|

G|--------------------------------------------------------------------------------|

D|-2-2-2----2-2-2-3-3-3-2-2-2----2-2-2-3-3-3-0-0-0----0-0-0-3-3-3-2-2-2----2-2-2--|

A|-2-2-2----2-2-2-3-3-3-2-2-2----2-2-2-3-3-3-0-0-0----0-0-0-3-3-3-2-2-2----2-2-2--|

D|-2-2-2----2-2-2-3-3-3-2-2-2----2-2-2-3-3-3-0-0-0----0-0-0-3-3-3-2-2-2----2-2-2--|

PRE CHORUS

e|--------------------------------------x2-|-----------------------------|

B|-----------------------------------------|-----------------------------|

G|-----------------------------------------|-----------------------------|

D|-55555555-00000000-22222222-22222222-----|-X-X-X-X---------------------|

A|-55555555-00000000-22222222-22222222-----|-X-X-X-X---------------------|

D|-55555555-00000000-22222222-22222222-----|-X-X-X-X---------------------|

CHORUS

e|-----------------------------------------------x2-|----------------------|

B|--------------------------------------------------|----------------------|

G|--------------------------------------------------|----------------------|

D|-2-2-2222-5555-7-777-10-10-10101010-5555-7-777----|-2----2-2-0-0-2-2-0-0-|

A|-2-2-2222-5555-7-777-10-10-10101010-5555-7-777----|-2----2-2-0-0-2-2-0-0-|

D|-2-2-2222-5555-7-777-10-10-10101010-5555-7-777----|-2----2-2-0-0-2-2-0-0-|

VERSE

PRE CHORUS

CHORUS

INTRO x1

MIDDLE 8

e|----------------------------------------------------------------------|x2

B|----------------------------------------------------------------------|

G|----------------------------------------------------------------------|

D|-2-X-X-XX-X--0-2-X-X-XX-X--0-2-X-X-XX-X--0-2-0-3-0--------------------|

A|-2-X-X-XX-X--0-2-X-X-XX-X--0-2-X-X-XX-X--0-2-0-3-0--------------------|

D|-2-X-X-XX-X--0-2-X-X-XX-X--0-2-X-X-XX-X--0-2-0-3-0--------------------|

e|----------------------------------------------------------------------|

B|----------------------------------------------------------------------|

G|----------------------------------------------------------------------|

D|-0-2-0-3-0-2-0-3-0--22-00-33-00-22-00-33-00-22-00-33-00-22-00-33-00---|

A|-0-2-0-3-0-2-0-3-0--22-00-33-00-22-00-33-00-22-00-33-00-22-00-33-00---|

D|-0-2-0-3-0-2-0-3-0--22-00-33-00-22-00-33-00-22-00-33-00-22-00-33-00---|

e|----------------------------------------------------------------------|

B|----------------------------------------------------------------------|

G|----------------------------------------------------------------------|

D|-10-10-1010--10-10-9-9-99--9-9-10-10-1010--10-10-12--12--12--122-----|

A|-10-10-1010--10-10-9-9-99--9-9-10-10-1010--10-10-12--12--12--122-----|

D|-10-10-1010--10-10-9-9-99--9-9-10-10-1010--10-10-12--12--12--122-----|

CHORUS x2

END

e|----------|

B|----------|

G|----------|

D|-2--------|

A|-2--------|

D|-2--------|

| / slide up

| slide down

| h hammer-on

| p pull-off

| ~ vibrato

| + harmonic

| x Mute note

===============================================================================

Get this song at:  amazon.com

Share your thoughts

0 Comments found