Misc Unsigned Bands

Misc Unsigned Bands - Pepper - Toungues guitar tab

Pepper - Toungues

intro/verse

e-------------------------------------------------------------------|

b---------7---------------------------------------------------------|

g---3-----8-----3-------8-------------------------------------------|

d---4-----8-----6-------9-------------------------------------------|

a---4-----6-----6-------9-------------------------------------------|

E---2-----------4-------7-------------------------------------------|

PreChorus "only thing i've ever loves was..."

e--------------------------------------------------------------|

b--------------------------------------------------------------|

g--------------------------------------------------------------|

d--8-----------------------------------------------------------|

a--8-----------------------------------------------------------|

E--6-----------------------------------------------------------|

Chorus "does she know my name...."

e------------------------------------------------------------|

b------------------------------------------------------------|

g--3----8----------------------------------------------------|

d--3----8----------------------------------------------------|

a--1----6----------------------------------------------------|

e------------------------------------------------------------|

repeat

Post chorus

e---------------------------------------------------------------|

b---------------------------------------------------------------|

g---------------------------------------------------------------|

d---8----11-----4------6----------------------------------------|

a---8----11-----4------6----------------------------------------|

E---6----9------2------4----------------------------------------|

Ending

e---------------- -------------------------------------|

b---------------- -------------------------------------|

g---------------- --4----3-----------------------------|

d--9----8----4--- or --4----3---4-------------------------|

a--9----8----4--- --2----1---4-------------------------|

E--7----6----2--- -----------2-------------------------|

Get this song at:  amazon.com

Share your thoughts

0 Comments found