Misc Unsigned Bands

Misc Unsigned Bands - Nightmare Creatures - Ghost Train guitar tab

Ghost Train Tab

Intro speech chords:

Em, C, Em Am (low volume, tuned down)

Intro:

----------------------------------------------------|

----------------------------------------------------|

----------------------------------------------------|

---9---7---5---3---1---3---5---7--------------------|

----------------------------------------------------|

-0---0---0---0---0---0---0---0----------------------|

----------------------------------------------------|

----------------------------------------------------|

----------------------------------------------------|

---9--10---9---8---6---4---2--0---------------------|

----------------------------------------------------|

-0---0---0---0---0---0---0----0---------------------|

Chorus:

Still concidering different options, sorry..

Verse 1 acoustic guitar 1.

C, Em.

Am Em

C, Em

Am, Em.

4/4

guitar 2 (with low disortion)

--------------------------------------|

--------------------------------------|

-----------------------5---3----------|

-----------------------5---3----------|

--7-7-7-7----5-5-5-5--5---3-----------|

--------------------------------------|

. .pm . . . . . . . . . . . . . . .

Between verse 1 & 2 riff 2:

guitar 1

--------7----------------------------|

-------------------5-----------------|

-------------------------------------|

-------------------------------------|

-------------------------------------|

--0-0--------0-0---------------------|

guitar 2 (heavy disortion)

-------------------------------------|

-------------------------------------|

--5---9-------9----------------------|

--5---9---7---9----------------------|

--3---7---7---7----------------------|

----------5--------------------------|

repeat once.

Verse 2 acoustic guitar 1.

C, Em

Am, Em

C, Em

Am, Em.

8/8

guitar 2 (with low disortion)

--------------------------------------|

--------------------------------------|

-----------------------5---3----------|

-----------------------5---3----------|

--7-7-7-7----5-5-5-5--5---3-----------|

--------------------------------------|

. .pm . . . . . . . . . . . . . . .

Solo: Not yet sorry..

Verse 3 guitar 1 and guitar 2 disorted

C, E

A, E

C, E

A, EAdded by tabs-database.com and our distinguished partners

Get this song at:  amazon.com

Share your thoughts

0 Comments found