Misc Unsigned Bands

Misc Unsigned Bands - Mysteria - Stairway guitar tab

Mysteria - Stairway

Zach Wells

Alex Broaddus

x16

e|---------------------------|

B|---------------------------|

G|---------------------------|

D|-6--6--6--5--4-------------|

A|-7--7--7--6--5-------------|

E|-5--5--5--4--3-00000000----|

xxxxxxxx

e|------------------------------------------------|

B|------------------------------------------------|

G|------------------------------------------------|

D|------------------------------------------------|

A|-5-7-9-7-12-7-6---------------------------------|

E|-3-5-7-5-10-5-4-7-9-12-13-14-5-7-9-12-13-14-----|

This is it. Simple. The very first song I ever made.Added by tabs-database.com and our distinguished partners

Get this song at:  amazon.com sheetmusicplus.com

Share your thoughts

0 Comments found