Misc Unsigned Bands

Misc Unsigned Bands - Ill Sight - Eheelun guitar tab

Chords

======

Tabbed by: Abdulla Madhih (The Resonance, Lead Guitar), webmaster at tabs-database.com.com

Submited by: Ahmed Nahidh, webmaster at tabs-database.com.com

=============================================================================

Intro:

Em C C7 X 4

Em C C7 X 4

Verse 1:

Em C D D X 4

Em C D D X 4

Em C D D X 1

Em C D X 1

Preverse:

G Em C D X 2

G Em C D X 1

G Em C X 1

Verse 2:

G Em C D X 4

Chorus:

Em C D D X 4

----------------------------

Em C C7 X 4

----------------------------

Verse 2:

Em C D D X 4

Em C D D X 4

Em C D D X 4

Chorus:

Em C D D X 4

Em C D D X 4

Solo:

Em C D D X 4

Chorus:

Em C D D X 4

Em C D D X 2

Outro:

Em C C7 X 1

=============================================================================

Guitar Tab

==========

Tabbed by: Abdulla Madhih (The Resonance, Lead Guitar)

E-mail: webmaster at tabs-database.com.com

=============================================================================

Tuning: E A D G B E

=============================================================================

/ - Slide up to

\\ - Slide down to

b - Bend

=============================================================================

Intro:

Em C C7 X 3

E:-----0-------0-----0-----------0-----------------------------------------|

B:-------0-------1-------------3---3---------------------------------------|

G:---------------------------0-------0-------------------------------------|

D:-------------------------4-----------4-----------------------------------|

A:---2-------3-----3-----5-------------------------------------------------|

E:-------------------------------------------------------------------------|

Em C C7 X 1

E:-----0-------0-----0---0-------------------------------------------------|

B:-------0-------1-------3-------------------------------------------------|

G:-----------------------0-------------------------------------------------|

D:-----------------------4-------------------------------------------------|

A:---2-------3-----3-----5-------------------------------------------------|

E:-------------------------------------------------------------------------|

Lead 1:

Em C D Em C D X 4

E:-------------------------------------------------------------------------|

B:----------------------------------------8--8--7---7-8-8-7----------------|

G:---9--9-5----9-7--9/12--12-11-9-7-9--9--------------------9-7------------|

D:-------------------------------------------------------------------------|

A:-------------------------------------------------------------------------|

E:-------------------------------------------------------------------------|

Em C D Em C D

E:-------------------------------------------------------------------------|

B:------------------7-8-10-8-7---------------------------------------------|

G:---9-9-5--5-9-7-9------------9-7-9-9/11-9-7-6----------------------------|

D:----------------------------------------------9--------------------------|

A:-------------------------------------------------------------------------|

E:-------------------------------------------------------------------------|

Verse 1:

Em C C7 X 9

E:-----0-------0-----0-----------0-----------------------------------------|

B:-------0-------1-------------3---3---------------------------------------|

G:---------------------------0-------0-------------------------------------|

D:-------------------------4-----------4-----------------------------------|

A:---2-------3-----3-----5-------------------------------------------------|

E:-------------------------------------------------------------------------|

Em C C7 X 1

E:-----0-------0-----0---0-------------------------------------------------|

B:-------0-------1-------3-------------------------------------------------|

G:-----------------------0-------------------------------------------------|

D:-----------------------4-------------------------------------------------|

A:---2-------3-----3-----5-------------------------------------------------|

E:-------------------------------------------------------------------------|

Preverse: Distored and Palm Muted

G Em D D X 3

E:-----3-------0-----0-----2------3-2--------------------------------------|

B:-------3-------0-----------3--------3------------------------------------|

G:-----------------------------2--------2----------------------------------|

D:-----------------------0-------------------------------------------------|

A:-------------------------------------------------------------------------|

E:---3-------0-----0-------------------------------------------------------|

G Em D X 1

E:-----3-------0-----0---2-------------------------------------------------|

B:-------3-------0-------3-------------------------------------------------|

G:-----------------------2-------------------------------------------------|

D:-----------------------0-------------------------------------------------|

A:-------------------------------------------------------------------------|

E:---3-------0-----0-------------------------------------------------------|

Verse 2:

G Em C D X 4

E:----3-----3-----3----0-----0-----0----0-----0-----0----2-----3-2---------|

B:------3-----3----------0-----0----------1-----1----------3-------3-------|

G:-----------------------------------------------------------2-------2-----|

D:-----------------------------------------------------0-------------------|

A:------------------------------------3-----3-----3------------------------|

E:--3-----3-----3----0-----0-----0-----------------------------------------|

Chorus: Distored

Em C D D X 4

E:-------------------------------------------------------------------------|

B:-------------------------------------------------------------------------|

G:--9------5----------7------7---------------------------------------------|

D:--9------5----------7------7---------------------------------------------|

A:--7------3----------5------5---------------------------------------------|

E:-------------------------------------------------------------------------|

- - - - - - - - - - - - - - - - - - - - - - - - - - - - - - - - - - - - - - -

Em C C7 X 3

E:-----0-------0-----0-----------0-----------------------------------------|

B:-------0-------1-------------3---3---------------------------------------|

G:---------------------------0-------0-------------------------------------|

D:-------------------------4-----------4-----------------------------------|

A:---2-------3-----3-----5-------------------------------------------------|

E:-------------------------------------------------------------------------|

Em C C7 X 1

E:-----0-------0-----0---0-------------------------------------------------|

B:-------0-------1-------3-------------------------------------------------|

G:-----------------------0-------------------------------------------------|

D:-----------------------4-------------------------------------------------|

A:---2-------3-----3-----5-------------------------------------------------|

E:-------------------------------------------------------------------------|

- - - - - - - - - - - - - - - - - - - - - - - - - - - - - - - - - - - - - - -

Verse 2:

Em C C7 X 10

E:-----0-------0-----0-----------0-----------------------------------------|

B:-------0-------1-------------3---3---------------------------------------|

G:---------------------------0-------0-------------------------------------|

D:-------------------------4-----------4-----------------------------------|

A:---2-------3-----3-----5-------------------------------------------------|

E:-------------------------------------------------------------------------|

Distored and Palm Muted

Em C D D X 2

E:-------------------------------------------------------------------------|

B:-------------------------------------------------------------------------|

G:--9------5----------7------7---------------------------------------------|

D:--9------5----------7------7---------------------------------------------|

A:--7------3----------5------5---------------------------------------------|

E:-------------------------------------------------------------------------|

Chorus:

Em C D D X 8

E:-------------------------------------------------------------------------|

B:-------------------------------------------------------------------------|

G:--9------5----------7------7---------------------------------------------|

D:--9------5----------7------7---------------------------------------------|

A:--7------3----------5------5---------------------------------------------|

E:-------------------------------------------------------------------------|

Solo: Distored Rhythm and lead

Em C D D X 4

E:-------------------------------------------------------------------------|

B:-------------------------------------------------------------------------|

G:--9------5----------7------7---------------------------------------------|

D:--9------5----------7------7---------------------------------------------|

A:--7------3----------5------5---------------------------------------------|

E:-------------------------------------------------------------------------|

Em C D D

E:-------------------------------------------------------------------------|

B:--10b12-10b12r10-8--10\\12-12-12-10-10-8-8-7-7--7-10-8-7------------------|

G:--------------------------------------------------------9-7--------------|

D:-------------------------------------------------------------------------|

A:-------------------------------------------------------------------------|

E:-------------------------------------------------------------------------|

Em C D D Em C D D Em C D D

E:------------------------------|---------|--10\\12-12-------12\\14----------|

B:--------------7-8-----7-8-10--|-some----|--------------------------------|

G:--9---------------9-----------|-tapping-|--------------------------------|

D:------------------------------|---------|--------------------------------|

A:------------------------------|-not-so--|--------------------------------|

E:------------------------------|-clear---|--------------------------------|

Chorus:

Em C D D X 6

E:-------------------------------------------------------------------------|

B:-------------------------------------------------------------------------|

G:--9------5----------7------7---------------------------------------------|

D:--9------5----------7------7---------------------------------------------|

A:--7------3----------5------5---------------------------------------------|

E:-------------------------------------------------------------------------|

Outro:

Em C C7 X 1

E:-----0-------0-----0-----------0-----------------------------------------|

B:-------0-------1-------------3---3---------------------------------------|

G:---------------------------0-------0-------------------------------------|

D:-------------------------4-----------4-----------------------------------|

A:---2-------3-----3-----5-------------------------------------------------|

E:-------------------------------------------------------------------------|

Note: Even if this tabulature is submitted by Nahid (webmaster at tabs-database.com.com) the actual

of these codes is Abdulla Madhih (The Resonance, Lead Guitar), webmaster at tabs-database.com.com.

Please mail if you have any questions....Added by tabs-database.com and our distinguished partners

Get this song at:  amazon.com

Share your thoughts

0 Comments found