Misc Unsigned Bands

Misc Unsigned Bands - Idiots For Sale - Give It To Me Back Skeleton Key guitar tab

Song: Give It To Me Back! (Skeleton Key)

Artist: IDIOTS FOR SALE

Album: Not Another High School Band

Guitarist: Ins Cheppi & Andrew Farina

Tabbed by: Peter Albert Stuart (www.myspace.com/peteralbertstuart)

RIFF 1:

e-------------------------------------|

B-------------------------------------|

G--------4-------4--------------------| X 8 times

D------4---4---4---------5-------2----|

A-0--2-------2---------5---5---2------|

E------------------0-3-------0--------|

Somebody's Stolen Every One's Home

Somebody's Stolen Every One's Home

Guess Someone Has The Skeleton Key

Guess Someone Has The Skeleton Key

Guess Someone Has The Skeleton Key

Guess Someone Has The Skeleton Key

BRIDGE:

e-------------------------------------------------------|

B-------------------------------------------------------|

G--44444444-xx---------------44444444-------------------|

D--44444444-xx-5-5-/2-222-xx-44444444-5-2>--------------|

A--22222222-xx-5-5-/2-222-xx-22222222-5-2>don't leave---|

E--------------3-3-/0-000-xx----------3-0>--------------|

RIFF 2:

e-------------------------------------|

B--------3-------3--------------------|

G--------4-------4-------4-------1----| X 6 times

D------4---4---4---------5-------2----|

A-0--2-------2---------5---5---2------|

E------------------0-3-------0--------|

Hope Is Not You My Friend

Please Don't Lie or Pretend

Guess Someone Has The Skeleton Key

Guess Someone Has The Skeleton Key

Guess Someone Has The Skeleton Key

Guess Someone Has The Skeleton

CHORUS:

e-----------------------------------------|

B-----------------------------------------|

G--4-4-xxxx---------/9-9-xxxx-5-5-555-xx--|

D--4-4-xxxx-5-5-555-/9-9-xxxx-5-5-555-xx--| x 2

A--2-2-xxxx-5-5-555-/7-7-xxxx-3-3-333-xx--|

E-----------3-3-333-----------------------|

Give It To Me Back!

Give It To Me Back!

Give It To Me Back!

Give It To Me Back!

BRIDGE (post chorus)

RIFF 3 (Bass Playing and easy "Hammers" for guitar)

e--------------------------------|

B--2h0h2h0----------2h3----------|

G--------------------------0-----|

D----------------------------2---|

A--------------------------------|

E--------------------------------|

e---------------------------------0r---|

B--2h0h2h0h2h0h2h0h2h0h2h0h2h0h2--0r---|

G---------------------------------0r---|

D--------------------------------------|

A--------------------------------------|

E--------------------------------------|

Expanded Version of Dispear Noise

Sleep Inside, There's Not such Choice

Guess Someone Has The Skeleton Key

Guess Someone Has The Skeleton Key

Guess Someone Has The Skeleton Key

Guess Someone Has The Skeleton

CHORUS x 2

INTERLUDE

e------------------------|

B------------------------|

G--4-444444/7-77-7/9-99--| x 4 at 4 stop

D--x-xxxxxx/x-xx-x/x-xx--|

A--2-222222/5-55-5/7-77--|

E------------------------|

Where's My Home

Misanthrope

He Hates Us All And We Hate Him All (Like "Heart Shaped Box")

Misantrhope

CHORUS x 4

OUTRO like BRIDGE

That's All. Great Song you can listen to on www.myspace.com/idiots4sale.

Please Rate this Tab! Thank You!

I'm sure it's all right, sorry if the second guitar is missing

webmaster at tabs-database.com.com

Added by tabs-database.com and our distinguished partners

Get this song at:  amazon.com

Share your thoughts

0 Comments found