Misc Unsigned Bands

Misc Unsigned Bands - Fuhgawz - Improfety guitar tab

Artista: Fughawz (con derecho de algunos y desconformidad mia sobre el nombre)

Cancion: Improfety

Compuesta por: Nico .M. (nicokbbl@hotmail.com)

Intro

1|------------------------------------------------------|

2|------------------------------------------------------|

3|-------------------------6-0x-0x----------------------|

4|-4-0x-0x-4---4-0x-0x-4---6-0x-0x----------------------| x2 (dos veces)

5|-4-0x-0x-4---4-0x-0x-4---4-0x-0x--4-------------------|

6|-2-0x-0x-2---2-0x-0x-2------------5-------------------|

a la tercera:

1|------------------------------------------------------|

2|------------------------------------------------------|

3|-------------------------6-0x-0x----------------------|

4|-4-0x-0x-4---4-0x-0x-4---6-0x-0x------0-6-------------|

5|-4-0x-0x-4---4-0x-0x-4---4-0x-0x--4---0-6-0-3-0-2-0-2-|

6|-2-0x-0x-2---2-0x-0x-2------------5---0-4-0-4-0-3-0-4-|

1|------------------------------------------------------|

2|------------------------------------------------------|

3|-------------6-6-6-6-6--------------------------------| x2 (dos veces)

4|--4-4-4-4-4--6-6-6-6-6-------------0-6----------------|

5|--4-4-4-4-4--4-4-4-4-4--4-4-4-4-4--0-6-0-3-0-2-0------|

6|--2-2-2-2-2-------------5-5-5-5-5--0-4-0-4-0-3-0------|

pre coro (pre chorus)

1|------------------------------------------------------|

2|-----------8-8-7-7-7-7-5-8-8-7-7-7-7-5-5--------------|

3|-----8-8---7-7-6-6-7-7-5-7-7-6-6-7-7-5-5--------------|

4|-8-8-8-8---7-7-6-6-7-7-5-7-7-6-6-7-7-5-5--------------|

5|-8-8-6-6----------------------------------------------|

6|-6-6--------------------------------------------------|

coro (chorus)

1|------------------------------------------------------|

2|------------------------------------------------------|

3|--8-8-7-7-8-8-7-7---5-5-----5-5-----------------------|

4|--6-6-6-6-6-6-6-6---4-4-4-4-4-4-4-4-------------------|

5|--7-7-5-5-7-7-5-5---5-5-3-3-5-5-3-3-------------------|

6|--6-6-6-6-6-6-6-6---4-4-4-4-4-4-4-4-------------------|

Repite la primera parte

y termina con...

1|------------------------------------------------------|

2|------------------------------------------------------|

3|-------------6-6-6-6-6--------------------------------|

4|--4-4-4-4-4--6-6-6-6-6-------------4------------------|

5|--4-4-4-4-4--4-4-4-4-4--0-3-0-2-0--4------------------|

6|--2-2-2-2-2-------------0-4-0-3-0--2------------------|

derechos reservados de nicokbbl@hotmail.com

Get this song at:  amazon.com

Share your thoughts

0 Comments found