Misc Unsigned Bands

Misc Unsigned Bands - Frozen Cherries - Change Your Mind guitar tab

Frozen Cherries

Track 1

W Q Q E E E E Q Q E E E E

E||-------------------|--2----2-------3--3-----|--0----0----------------|

B||-------------------|--3----3-------0--0-----|--2----2----------------|

G||-------------------|--2----2-------0--0-----|--2----2-------0--0-----|

D||-------------------|--0----0-------0--0-----|--2----2-------0--0-----|

A||-------------------|---------------2--2-----|--0----0-------2--2-----|

E||-------------------|---------------3--3-----|--0----0-------3--3-----|

Q Q E E E E Q Q E E E E W

--2----2-------3--3-----|--0----0----------------|-------------------|

--3----3-------0--0-----|--2----2----------------|-------------------|

--2----2-------0--0-----|--2----2-------0--0-----|-------------------|

--0----0-------0--0-----|--2----2-------0--0-----|-------------------|

---------------2--2-----|--0----0-------2--2-----|-------------------|

---------------3--3-----|--0----0-------3--3-----|-------------------|

E E E E E E E E E E E E E E E E W

--------------------------|--------------------------|-------------------|

--------------------------|--------------------------|-------------------|

--------------------------|--------------------------|-------------------|

--------------------------|--------------------------|-------------------|

--------------------------|--------------------------|-------------------|

--------------------------|--------------------------|-------------------|

W W W W

-------------------|-------------------|-------------------|-------------------|

-------------------|-------------------|-------------------|-------------------|

-------------------|-------------------|-------------------|-------------------|

-------------------|-------------------|-------------------|-------------------|

-------------------|-------------------|-------------------|-------------------|

-------------------|-------------------|-------------------|-------------------|

W W W W

-------------------|-------------------|-------------------|-------------------|

-------------------|-------------------|-------------------|-------------------|

-------------------|-------------------|-------------------|-------------------|

-------------------|-------------------|-------------------|-------------------|

-------------------|-------------------|-------------------|-------------------|

-------------------|-------------------|-------------------|-------------------|

W W Q Q E E E E

-------------------|-------------------|--2----2-------3--3-----|

-------------------|-------------------|--3----3-------0--0-----|

-------------------|-------------------|--2----2-------0--0-----|

-------------------|-------------------|--0----0-------0--0-----|

-------------------|-------------------|---------------2--2-----|

-------------------|-------------------|---------------3--3-----|

Q Q E E E E Q Q E E E E Q Q E E Q

--0----0----------------|--2----2-------3--3-----|--0----0---------------|

--2----2----------------|--3----3-------0--0-----|--2----2---------------|

--2----2-------0--0-----|--2----2-------0--0-----|--2----2-------0-------|

--2----2-------0--0-----|--0----0-------0--0-----|--2----2-------0-------|

--0----0-------2--2-----|---------------2--2-----|--0----0-------2-------|

--0----0-------3--3-----|---------------3--3-----|--0----0-------3-------|

Added by tabs-database.com and our distinguished partners

Get this song at:  amazon.com sheetmusicplus.com

Share your thoughts

0 Comments found