Misc Unsigned Bands

Misc Unsigned Bands - Fingersmoran - Taco Tuesday Bass guitar tab

Taco Tuesday by Fingersmoran

Flamenco Strummed

G-2--4--5----2-4-5-7//9-7-5--2--4--2-|

D-3--2--3----3-2-3-5//7-5-3--3--2--0-|

A------------------------------------|

E------------------------------------|

G-2--4--5----2--4--5--7--5-4-2--4--5----2--4--2-|

D-3--2--3----3--2--3--5--3-2-3--2--3----3--2--0-|

A-----------------------------------------------|

E-----------------------------------------------|

G-5h7--7-5-5h7--7-7-8-5-| |-2--2--4-444444-5--5--7-7777777-|

D-0----0-0-0----0-0-0-0-| |-3--3--2-222222-3--3--5-5555555-|

A-----------------------|x4|--------------------------------|

E-----------------------| |--------------------------------|

G-5h7--7-5-5h7--7-7-8-5-| |-2--2--4-444444-5--5--7-7777777-|

D-0----0-0-0----0-0-0-0-| |-3--3--2-222222-3--3--5-5555555-|

A-----------------------|x2|--------------------------------|

E-----------------------| |--------------------------------|

G-17h19--19-17-17h19-19-20-15-17h19--19-17-17h19-15h17-14-|

D-0------0--0--0-----0--0--0--0------0--0--0-----0-----0--|

A---------------------------------------------------------|

E---------------------------------------------------------|

G-2--2--4-444444-5--5--7-7777777-|

D-3--3--2-222222-3--3--5-5555555-|

A--------------------------------|

E--------------------------------|

Slapped Strummed again

G--------7-7------7-7--| |-2--2--4-444444-5--5--7-7777777-|

D----------------------| |-3--3--2-222222-3--3--5-5555555-|

A-0-3/5-x-x--3/5-x-x-5-|x2|--------------------------------|

E----------------------| |--------------------------------|

T T TPTP T TPTPT

G-7--7--7---7--7-7--7--7--7--8-8-8-8-5-5-5-5-|

D-7--7--7---7--7-7--7--7--7--8-8-8-8-5-5-5-5-|

A-5--5--5---5--5-5--5--5--5--6-6-6-6-3-3-3-3-|

E---------0----------------------------------|

T

G-7--7--7---7--7-7--7--7--7--101010105-5-5-5-|

D-7--7--7---7--7-7--7--7--7--101010105-5-5-5-|

A-5--5--5---5--5-5--5--5--5--8-8-8-8-6-6-6-6-|

E---------0----------------------------------|

T

G-7--7--7---7--7-7--7--7--7--8-8-8-8-5-5-5-5-|

D-7--7--7---7--7-7--7--7--7--8-8-8-8-5-5-5-5-|

A-5--5--5---5--5-5--5--5--5--6-6-6-6-3-3-3-3-|

E---------0----------------------------------|

T

G-7--7--7--7-7--10h12-10-10/8h10-8-8/7-------|

D-7--7--7--7-7--0-----0--0--0----0-0-0-------|

A-5--5--5--5-5-------------------------------|

E--------------------------------------------|

G-2--2--4-444444-5--5--7-7777777-|

D-3--3--2-222222-3--3--5-5555555-|

A--------------------------------|

E--------------------------------|

G-5h7--7-5-5h7--7-7-8-5-| |-2--2--4-444444-5--5--7-7777777-|

D-0----0-0-0----0-0-0-0-| |-3--3--2-222222-3--3--5-5555555-|

A-----------------------|x2|--------------------------------|

E-----------------------| |--------------------------------|

G-17h19--19-17-17h19-19-20-15-17h19--19-17-17h19-15h17-14-|

D-0------0--0--0-----0--0--0--0------0--0--0-----0-----0--|

A---------------------------------------------------------|

E---------------------------------------------------------|

G-2--2--4-444444-5--5--7-7777777-|

D-3--3--2-222222-3--3--5-5555555-|

A--------------------------------|

E--------------------------------|

Slapped Strummed again

G--------7-7------7-7--| |-2--2--4-444444-5--5--7-7777777-|

D----------------------| |-3--3--2-222222-3--3--5-5555555-|

A-0-3/5-x-x--3/5-x-x-5-|x2|--------------------------------|

E----------------------| |--------------------------------|

G-7--7--7---7--7-7--7--7--7--8-8-8-8-5-5-5-5-|

D-7--7--7---7--7-7--7--7--7--8-8-8-8-5-5-5-5-|

A-5--5--5---5--5-5--5--5--5--6-6-6-6-3-3-3-3-|

E---------0----------------------------------|

T

G-7--7--7---7--7-7--7--7--7--101010105-5-5-5-|

D-7--7--7---7--7-7--7--7--7--101010105-5-5-5-|

A-5--5--5---5--5-5--5--5--5--8-8-8-8-6-6-6-6-|

E---------0----------------------------------|

T

G-7--7--7---7--7-7--7--7--7--8-8-8-8-5-5-5-5-|

D-7--7--7---7--7-7--7--7--7--8-8-8-8-5-5-5-5-|

A-5--5--5---5--5-5--5--5--5--6-6-6-6-3-3-3-3-|

E---------0----------------------------------|

T

G-7--7--7---7--7-7--7--7--7--101010105-5-5-5-|

D-7--7--7---7--7-7--7--7--7--101010105-5-5-5-|

A-5--5--5---5--5-5--5--5--5--8-8-8-8-6-6-6-6-|

E---------0----------------------------------|

T

G-7--7--7---7--7-7--x--7--7--7--8-8-8-8-5-5-5-5-|

D-7--7--7---7--7-7--x--7--7--7--8-8-8-8-5-5-5-5-|

A-5--5--5---5--5-5--x--5--5--5--6-6-6-6-3-3-3-3-|

E-----------------------------------------------|

G-7--7--7---7--7-7--x--7--7--7--101010105-5-5-5-|

D-7--7--7---7--7-7--x--7--7--7--101010105-5-5-5-|

A-5--5--5---5--5-5--x--5--5--5--8-8-8-8-6-6-6-6-|

E-----------------------------------------------|

G-7--7--7---7--7-7--x--7--7--7--8-8-8-8-5-5-5-5-|

D-7--7--7---7--7-7--x--7--7--7--8-8-8-8-5-5-5-5-|

A-5--5--5---5--5-5--x--5--5--5--6-6-6-6-3-3-3-3-|

E-----------------------------------------------|

G-7--7--7---7--7-7--10h12-10-10/8h10-8-8/7------|

D-7--7--7---7--7-7--0-----0--0--0----0-0-0------|

A-5--5--5---5--5-5------------------------------|

E-----------------------------------------------|

G-2--4--5----2-4-5-7//9-7-5-----2-----4--------2-|

D-3--2--3----3-2-3-5//7-5-3-----3-----2--------0-|

A------------------------------------------------|

E------------------------------------------------|

This outro is the one he does in the video

tabs-database.com[http://www.tabs-database.com.com/]

G-22323-33535-55757-77878-8810810-1010121012-1212141214-15~~~~-14h15-17-15-|

D-00000-00000-00000-00000-000-00--0-0-0-0-0--0-0-0-0-0--0------0-----0--0--|

A--------------------------------------------------------------------------|

E--------------------------------------------------------------------------|

-17-17/19vvv--17h19-19-19-17-15h17-15-14-14-15-14-15vv-14h15p14h15p14h15p14|

-0--0--------------------------------------------------0-------------------|

---------------------------------------------------------------------------|

---------------------------------------------------------------------------|Added by tabs-database.com and our distinguished partners

Get this song at:  amazon.com

Share your thoughts

0 Comments found