Misc Unsigned Bands

Misc Unsigned Bands - Enfermo - Viejos De Mierda guitar tab

This is a new artist

Artist: Enfermo

Song title: Viejos de mierda

Autor: Chile, Bot, Pitu, Geni

Intro - Verse

E| -3----3--3---|--1----1--1--- |--3--3--3---3-3---3-|

B| -3----3--3---|--3----3--3--- |--4--4--4---3-3---4-|

G|o-4----4--4---|--3----3--3--- |--5--5--5---4-4---5-|

D|o-5----5--5---|--3----3--3--- |--5--5--5---5-5---5-|

A| -5----5--5---|--1----1--1--- |--3--3--3---5-5---3-|

E| -3----3--3---|--1----1--1--- |--3--3--3---3-3---3-|

Chorus

E|--x----x---x---x--|

B|--x----x---7---x--|

G|--5----7---7---7--|

D|--5----7---5---7--|

A|--3----5---5---5--|

E|--x----x---x---x--|

Solo

E|------------------|----------------------|

B|------------------|----------------------|

G|---5--7--8--(8)---|--5--7h8h7---8-7-5----|

D|------------------|----------------------| x5

A|------------------|----------------------|

E|------------------|----------------------|

Get this song at:  amazon.com

Share your thoughts

0 Comments found