Misc Unsigned Bands

Misc Unsigned Bands - Dystopia - George And Saddam Dont Get Along guitar tab

George and Saddam don't get Along

By: Dystopia

were a hick punk band from ontario,,,

visit our site:::www.geocities.com/dystopia_punk

This is our first song and its pathetically easy

Figure out the strumming by yourself

Intro 2x

e-------------------------------------------------------------|

b-------------------------------------------------------------|

g-------------------------------------------------------------|

d-9-9-9-9-11-11-11-11-6-6-6-6-8-8-8-8-------------------------|

a-*-*-*-*-**-**-**-**-*-*-*-*-*-*-*-*-------------------------|

e-7-7-7-7--9--9--9--9-4-4-4-4-6-6-6-6-------------------------|

Verse 2x

e--------------------------------------------------------------|

b--------------------------------------------------------------|

g--------------------------------------------------------------|

d-9-9-7-7----------9-9-7-7-------------------------------------|

a7-7-5-5--5-5-7-7-7-7-5-5--5-5-3-3-----------------------------|

e--------3-3-5-5----------3-3-1-1------------------------------|

Chorus (Same as Intro)

Interlude(Same as Intro, spread apart and add palm muting)

Get this song at:  amazon.com sheetmusicplus.com

Share your thoughts

0 Comments found