Misc Unsigned Bands

Misc Unsigned Bands - Dugan - Klone Theory Bass guitar tab

G:-------------------7------------:

D:---------5h7-7-7-5--5-----5h7-7-:

A:-3330-5h7--------------5h7------:

E:--------------------------------:

G:---------------5-5--------------:

D:---------5h7-7--7-7----5h7------:

A:-3330-5h7-----------5h7---------:

E:--------------------------------:

G:----------------7---------------:

D:---------5h7-775-5----5h7-------:

A:-3330-5h7----------5h7----------:

E:--------------------------------:

G:----------------7-----------5-5---------:

D:---------5h7-775-5----5h7-7--7-7----5h7-:

A:-3330-5h7----------5h7-----------5h7----:

E:----------------------------------------:

G:----------------------------------------: x2

D:----------------------------------------:

A:-3330-5550-333055503330-----------------:

E:----------------------------------------:

G:--11-9------11-9----11-9----------------:

D:-9--0-12-9-9--0-12-9--0-12-9------------:

A:----------------------------------------:

E:----------------------------------------:

G:--9-7------9-7----9-7--------------------------:

D:-7-0-10-7-7-0-10-7-0-10-7----------------------:

A:-----------------------------------------------:

E:-----------------------------------------------:

G:-11------9-----11------9-------11------9-----------7-----7-5----:

D:---0-9-12--------0-9-12-11-------0-9-12--11-9-7h8h9-9-555---8-5-:

A:----------------------------------------------------------------:

E:----------------------------------------------------------------:

Added by tabs-database.com and our distinguished partners

Get this song at:  amazon.com

Share your thoughts

0 Comments found