Misc Unsigned Bands

Misc Unsigned Bands - Devils Warfare-rock Like That guitar tab

--------------------------------------------------------------------------------

devils warfare-rock like that

--------------------------------------------------------------------------------

tabbed by kidd rock jr

/ = slide up 1-13

\\ = slide down 13-1

u = strum up

d = strum down

h = hammer on

p = pull off

|------------------------------------------------------------

|------------------------------------------------------------

|------------------------------------------------------------

|------------------------------------------------------------

|------------------------------------------------------------

|-3------11------3------11------3------11------3------11-----

yo kidd play some of your roooooooooooooooock

d u d d d d d d d d d d d d d

|---------------------------|-------------------------------------

|---------------------------|-------------------------------------

|---------------------------|-------------------------------------

|---------------------------|-3--3-3/5--0-3-5--0-3-6-5--0-3-5-3-0- x3

|---------------------------|-3--3-3/5--0-3-5--0-3-6-5--0-3-5-3-0-

|-0-3-5--0-3-6-5--0-3-5-3-0-|-3--3-3/5--0-3-5--0-3-6-5--0-3-5-3-0-

oh man you can play better ya thats it come on keep playing it cause

we gotta get it on to night

d u d u d u

|----------------------------------------------

|----------------------------------------------

|---------------------------------------------- x2

|-----------------1-3-5--5-3-1-----------------

|----------9------2-4-6--6-4-2-----------9-----

|-5h6-6p5----9\\6--3-5-7--7-5-3--5h6-6p5----9/6-

Added by tabs-database.com and our distinguished partners

Get this song at:  amazon.com

Share your thoughts

0 Comments found