Misc Unsigned Bands

Misc Unsigned Bands - Deathmask - Wings To Go guitar tab

Song Title: Wings To Go

Band: DEATHMASK

Written by: Logmar Dick Tittles, Anders Titsbottom, and Anus

Lemmings

Website: tabs-database.com[http://www.tabs-database.com.com/]

Tabbed by: Logmar Dick Tittles

Notes from the artist: Because chicken wings rule! This is pretty much

how it was played when recorded...

The tuning is: DADGBE

Note: * is the symbol that I am using for Speed Picking the fretted notes

~ is the symbol for vibrato

. is the symbol I use for Palm Muting

I think everything is relatively deductive in this TAB

Riff A Repeat 4x

----------------------------------------------------------------------|

----------------------------------------------------------------------|

-------7-\\-12-/-7--------8-/-5-\\-8--------7-\\-12-/-7--------8---5---3-|

--------SL----SL----------SL--SL-----------sl---sl--------------------|

-0--0--5-\\-10-/-5--0--0--6-/-3-\\-6--0--0--5-\\-10-/-5--0--0--6---3---1-|

-0--0--------------0--0-------------0--0--------------0--0------------|

. . . . . . . .

Verse Riff B Repeat 4x

----------------------------------------------------------------------|

----------------------------------------------------------------------|

----------------------------------------------------------------------|

-------------------------8---5---8------------------------------5---3-|

-----0---------0---------6---3---6------0---------0---------1---3---1-|

-0-0-0----5~~~~0---0--0-------------0-0-0----5~~~~0---0--0--1---------|

. . . . . . . .

Riff B/C

-----------|

-----------|

-----------|

-----------|

-----------|

-0000-0000-|

.... ....

Riff C Repeat 2x

-------------------------------------------------|

-------------------------------------------------|

-------------------------------------------------|

-------------------------------3---2-------3---2-|

-------3-----------3-----------------------------|

-4-3-1---1-0-4-3-1---1-0-1-0-1---1---1-0-1---1---|

. . . . . . . . . . . . . . . . . .

-------------------------------------------------|

-------------------------------------------------|

-------------------------------------------------|

-------------------------------3---2-------3---5-|

-------3-----------3-----------------------------|

-4-3-1---1-0-4-3-1---1-0-1-0-1---1---1-0-1---1---|

. . . . . . . . . . . . . . . . . .

Riff B/C 1x

Then Riff A 2x

Riff B 4x

Riff B/C 1x

Riff C 2x

Riff D 4x

------------------------------------------------|

------------------------------------------------|

------------------------------------------------|

-*-*-*-*-*-*-*-*--------*-*-*-*-*-*-------*---*-|

-5-4-5-7-5-8-7-5--0--0--5-4-5-7-5-7-*-*-*-4-*-4-|

------------------0--0--------------8-7-8---8---|

. .

Riff E 2x

-------------------------------------------------|

-------------------------------------------------|

-------------------------------------3-2-3-2-0-2-|

-------3---3-2---2-------------3---3-------------|

-5-4-5---5-----4---1-0-4-5-4-5---5---------------|

-------------------------------------------------|

. . . . . . . . . . . .

-------------------------------------------------|

-------------------------------------------------|

-------------------------------------3-2-3-5-3-5-|

-------3---3-2---2-------------3---3-------------|

-5-4-5---5-----4---1-0-4-5-4-5---5---------------|

-------------------------------------------------|

. . . . . . . . . . . .

End Riff E

Riff E1 (Harmony with Riff E)

----------------------------------------------------------|

----------------------------------------------------------|

---------------------------------------------8-7-8-7----7-|

---------8----8-7---7-----------------8----8---------10---|

-10-9-10---10-----9---------9-10-9-10---10----------------|

----------------------13-12-------------------------------|

. . . . . . . . . . . .

-----------------------------------------------------------|

-----------------------------------------------------------|

---------------------------------------------8-7-8-10-8-10-|

---------8----8-7---7-----------------8----8---------------|

-10-9-10---10-----9---------9-10-9-10---10-----------------|

----------------------13-12--------------------------------|

. . . . . . . . . . . .

Riff B/C 1x

Riff C 2x

Song ends with random guitar noise, Extreme Blast Beats, and giggles.

-----------------------------------------------------------|

-----------------------------------------------------------|

-----------------------------------------------------------|

-----------------------------------------------------------|

-----------------------------------------------------------|

-----------------------------------------------------------|

Writers note:

I am Logmar Dick Tittles The Main Rhythm Guitarist and riff creator

within the band DEATHMASK. I honestly know

nothing about the time signatures of the songs we play. Once again if

you are interested in what the song sounds like go to

tabs-database.com[http://www.tabs-database.com.com/] and listen to the song.

Also as a disclaimer this piece of music is copyrighted so don't rip

it off...Besides why would you want to copy someone anyways? Music

is about individuality and if you don't feel that the right

to be a productive force of creation within the realm of music is

important then you don't deserve anything.Added by tabs-database.com and our distinguished partners

Get this song at:  amazon.com sheetmusicplus.com

Share your thoughts

0 Comments found