Misc Unsigned Bands

Misc Unsigned Bands - Damn Dangerous - Leet World Theme Song guitar tab

-------------------------------------------------------------------------------

Leet world theme song - damn dangerous

-------------------------------------------------------------------------------

Tabbed by: Jared C

Email: VNV.Nation@hotmail.com

Tuning: Standard E (E A D G B e)

e|---------------------------------------------------------------------------|

B|---------------------------------------------------------------------------|

G|----------------9-7--------------------------------------------------------|

D|-----9-7------------9-7-------------10-9-7-------------12-10-9-------------|

A|-7-7-----10-9-7---------10-9-7-------------10-9----------------12-10-------|

E|--------------------------------8-8--------------10-10---------------------|

| / slide up

| \ slide down

| h hammer-on

| p pull-off

| ~ vibrato

| + harmonic

| x Mute note

===============================================================================

Get this song at:  amazon.com sheetmusicplus.com

Share your thoughts

0 Comments found