Misc Unsigned Bands

Misc Unsigned Bands - Cross Flag - Dont Leave Me guitar tab

Tab: Intro (Tate)

E||-------------------------------------------------------|

B||-------------------------------------------------------|

G||-------------------------------------------------------| x1

D||-----------7-------------------------------------------|

A||-7--10--5--5-------------------------------------------|

E||-5--8---3----------------------------------------------|

Verse

E||-------------------------------------------------------|

B||-------------------------------------------------------|

G||-------------------------------------------------------| x4

D||-----------7-------------------------------------------|

A||-7--10--5--5-------------------------------------------|

E||-5--8---3----------------------------------------------|

||-------------------------------------------------------|

B||-------------------------------------------------------|

G||-------------------------------------------------------| x2

D||----------------7~~~~----------------------------------|

A||-7~~~~--10~~~~--5~~~~-----5~~~~------------------------|

E||-5~~~~--8~~~~-------------3~~~~------------------------|

||-------------------------------------------------------|

B||-------------------------------------------------------|

G||-------------------------------------------------------| x4

D||-----------7-------------------------------------------|

A||-7- 10--5--5-------------------------------------------|

E||-5--8---3----------------------------------------------|

Chorus

||--------------------------------------------------------|

B||-------------------------------------------------------|

G||-------------------------------------------------------| x4

D||-----------7777--5555----------------------------------|

A||-77777777--5555--3333----------------------------------|

E||-55555555----------------------------------------------|

Intro

Verse

Chorus

Verse

Chorus

Devo's SOLO

Added by tabs-database.com and our distinguished partners

Get this song at:  amazon.com sheetmusicplus.com

Share your thoughts

0 Comments found