Misc Unsigned Bands

Misc Unsigned Bands - Bloodwork - Impurity guitar tab

Band-Bloodwork

Song-Impurity

Album-Only Fallen

Intro/Verse Gtr 1 Phaser Effect Repeat Through Whole Verse

b--0----------0----------0----------0----------11-------11-------11-------11--------|

f-----------------------------------------------------------------------------------| 1XIntro

d-----10---------10---------10---------10---------9--------9--------9--------9------|

a---------12---------12---------12---------12--------11-------11-------11-------11--|

e-----------------------------------------------------------------------------------| 6XVerse

A-----------------------------------------------------------------------------------|

Verse Gtr 2

b--0-0----0-0----0-0----0-0----0-0---0-0---0-0----0-0----|

f--5^6----5^6----5^6----5^6----4^5---4^5---4^5----4^5----|

d------7------7------7------7------6-----6-----6------6--| 6X

a--------------------------------------------------------|

e--------------------------------------------------------|

A--------------------------------------------------------|

Chorus

b--------------------------------------------------------------------------|

f--------------------------------------------------------------------------|

d--------------------------------------------------------------------------| 2X

a--15-15-15-14-14-14--10-10-10--14-14-14---15-15-15-14-14-14-10-10-10--10--|

e--12-12-12-12-12-12--8--8--8---11-11-11---12-12-12-12-12-12-8--8--8---8---|

A--12-12-12-12-12-12--8--8--8---11-11-11---12-12-12-12-12-12-8--8--8---7---|

Verse Gtr 1 Phaser Effect

b--0----------0----------0----------0----------11-------11-------11-------11--------|

f-----------------------------------------------------------------------------------|

d-----10---------10---------10---------10---------9--------9--------9--------9------| 6X

a---------12---------12---------12---------12--------11-------11-------11-------11--|

e-----------------------------------------------------------------------------------|

A-----------------------------------------------------------------------------------|

Verse Gtr 2

b--0-0----0-0----0-0----0-0----0-0---0-0---0-0----0-0----|

f--5^6----5^6----5^6----5^6----4^5---4^5---4^5----4^5----|

d------7------7------7------7------6-----6-----6------6--| 6X

a--------------------------------------------------------|

e--------------------------------------------------------|

A--------------------------------------------------------|

Chorus

b--------------------------------------------------------------------------|

f--------------------------------------------------------------------------|

d--------------------------------------------------------------------------| 4X

a--15-15-15-14-14-14--10-10-10--14-14-14---15-15-15-14-14-14-10-10-10--10--|

e--12-12-12-12-12-12--8--8--8---11-11-11---12-12-12-12-12-12-8--8--8---8---|

A--12-12-12-12-12-12--8--8--8---11-11-11---12-12-12-12-12-12-8--8--8---7---|

Under Solo

b-------------------|

f-------------------|

d-------------------| 3X On 3rd PM last 2 notes

a-7--3--6--7--------|

e-5--1--4--5-5--7---|

A------------5--7---|

Solo

b--------------------------------------------------------------------------|

f--------------------------------------------------------------------------|

d--------------------------------------------------------------------------|

a-------12^14/15-14-15/17-15-14-15------12^14/15-15/14-12-14-14-12-14------|

e--12^13---------------------------12^13-----------------------------------|

A--------------------------------------------------------------------------|

b----------------------------------------------------------------- --------------------------|

f--------15--17-17/18--17-18-18/20-18-17-18------15-17-17/18--17^18^17^15^17-15^17^15/14^15--|

d------14--------------------------------------14--------------------------------------------|

a----12--------------------------------------12----------------------------------------------|

e--13--------------------------------------13------------------------------------------------|

A--------------------------------------------------------------------------------------------|

sWEEP sWEEP

b-------------------------------------18-17-15-17-15-13-15-13-15/17-----------|

f-17-15-17-18-17-18-/20-18-17-18-17-17----------------------------------------|

d-----------------------------------------------------------------------------|

a-----------------------------------------------------------------------0-----|

e-----------------------------------------------------------------------0-----|

A-----------------------------------------------------------------------0-----|

Breakdown

b------------------------------------------------------- |-------------|

f------------------------------------------------------- |-------------|

d------------------------------------------------------- |-------------|

a------------------------------6------6------6------6--- 4X on the 4th one you end with|-6-6-6-6-6-6-|

e--2-3-0--2-3-0--2-3-0--2-3-0--4-0-1--4-0-1--4-0-1--40-1 |-4-4-4-4-4-4-|

A--2-3-0--2-3-0--2-3-0--2-3-0----0-1----0-1----0-1---0-1 |-------------|

PM... ... ... ...

Chorus/Outro Phaser

b-------------------------------------------------------------------------- |----------|

f-------------------------------------------------------------------------- |----------|

d-------------------------------------------------------------------------- |----------|

a--15-15-15-14-14-14--10-10-10--14-14-14---15-15-15-14-14-14-10-10-10--10--

4x |--9----10-|

e--12-12-12-12-12-12--8--8--8---11-11-11---12-12-12-12-12-12-8--8--8---8---

|--11---12-|

A--12-12-12-12-12-12--8--8--8---11-11-11---12-12-12-12-12-12-8--8--8---7---

|-0---0----|

Get this song at:  amazon.com

Share your thoughts

0 Comments found