Misc Unsigned Bands

Misc Unsigned Bands - Blondatta - No Wave guitar tab

Blondatta is a new punk-rock band from Spain who´s got a new two-side

single, "No Wave - Johnny´s coming". It was created in January,

2004.They don´t have official web page, but the leader´s e-mail is the

following: mrc19@hotmail.com

NO WAVE

-------

by blondatta ( the best ever punk band!!)

This song is a heavy-like instrumental - play it with high distortion.

THIS IS THE FIRST RIFF, REPEAT IT SOME TIMES:

E----------------------------------------------------------------------

B----------------------------------------------------------------------

G----------------------------------------------------------------------

D--9-9-9-9-9-9-9-9--9-9-9-9-9-9-9-9--9-9-9-9-9-9-9-9--5-5-5-5--7-7-7-7-

A--7-7-7-7-7-7-7-7--7-7-7-7-7-7-7-7--7-7-7-7-7-7-7-7--3-3-3-3--5-5-5-5-

E----------------------------------------------------------------------

+ . . . . . . . + . . + . . + . + . . . . . . . + . . . + . . .

AND THEN, SWITCH TO RIFF 2:

E----------------------------------------------------------------------

B----------------------------------------------------------------------

G-------------------4-4-4-4-4-4-4-4--5-5-5-5-5-5-5-5--5-5-5-5-5-5-5-5--

D--5-5-5-5-5-5-5-5--4-4-4-4-4-4-4-4--5-5-5-5-5-5-5-5--5-5-5-5-5-5-5-5--

A--5-5-5-5-5-5-5-5--2-2-2-2-2-2-2-2--3-3-3-3-3-3-3-3--3-3-3-3-3-3-3-3--

E--3-3-3-3-3-3-3-3-----------------------------------------------------

. . . . . . . . . . . . . . . . . . . . . . . . . . . . . . . .

A "+" sign means an open chord, and a "." means palm mute.

The song is very simple, but if you add a solo guitar and invent

a solo, it sounds much better.

Get this song at:  amazon.com sheetmusicplus.com

Share your thoughts

0 Comments found