Misc Unsigned Bands

Misc Unsigned Bands - B-randon - Random-ness guitar tab

i got bored and this is a song i made. tell me if u like.

you play each set twice exept for fifth and last set.

|---3---------|---------------|

|---3--3------|-------0-------|

|---0----0----|---------0-----|

|----------0--|-----2-----2---|

|-------------|-----2---------|

|-3-----------|--0------------|

x2 x2

|-------0---|-----0-----------|

|---1----1--|-----1--1--------|

|---0-----0-|-----2----2------|

|---2-------|--2---------2----|

|-3---------|-----------------|

|-----------|-----------------|

x2 x2

|---3-------|----0------------|

|---3--3----|----1--1---------|

|---0---0---|----0---0--------|

|--------0--|---------2-2-----|

|---------2-|--3--------------|

|-3---------|-----------------|

x2

|---2-------|-----3-----3-----|

|---1--1----|-----3-----3-----|

|-------2-2-|-----0-----------|

|-0------0--|---0-------------|

|-----------|--2--------------|

|-----------|-3---------------|

x2Added by tabs-database.com and our distinguished partners

Get this song at:  amazon.com sheetmusicplus.com

Share your thoughts

0 Comments found