Misc Unsigned Bands

Misc Unsigned Bands - Aureal - Suenos guitar tab

Banda: Aureal

Album: "Sueños"

Tema: Sueños

AFINACION: OPEN C (C-G-C-F-A-D)

/ Slide

LR Let ring (dejar sonar)

INTRO: (OVERCRIVE Y TREMOLO)

|--------------------------------------------------------------|

|--------------------------------------------------------------|

|--------------------------------------------------------------|

|-0-------8--7--3--0-0------8--7--3*---------------------------|

|-0---5-7-8--7--3--0-0--5-7-8--7--3*---------------------------|

|-0-------8--7--3--0--------8--7--3*---------------------------|

* entra la 2° guitarra con distorcion

ESTRIBILLO 1: (X4)

|--------------------------------------------------------------|

|--------------------------------------------------------------|

|--------------------------------------------------------------|

|-0--2-3-2-0--2-3-2/1010101010-9-9--0-3-3----------------------|

|-0--2-3-2-0--2-3-2/8-8-8-8-8--7-7--0-3-3----------------------|

|-0--2-3-2-0--2-3-2/8-8-8-8-8--7-7--0-3-3----------------------|

VERSE: (CLEAN CON DELAY Y REVERB)

|---------------------------------0----------------------------|

|------3------------------------3---3--------------------------|

|----2------------------------2-------2---------5--------------|

|------------3-----2-2/3-3--------------0-----3---3-----2-3----|

|--------0-1---1-0---------0--------------0-1-------1-0---3----|

|-0------------------------0------------------------------3----|

|---------------------------------0----------------------------|

|------3------------------------3---3--------------------------|

|----2------------------------2-------2---------5--------------|

|------------3-----2-2/3-3--------------0-----3---3-----2-3----|

|--------0-1---1-0---------0--------------0-1-------1-0---3----|

|-0------------------------0------------------------------3----|

ESTRIBILLO X4.-

PUENTE 1:

|-------------0-------------------------------------------------|

|---------------3-----------------------------------------------|

|-----------2-------2-------------------------------------------|

|-0-------0-------0---0-----------------------------------------|

|-0-----0-------------0-----------------------------------------|

|-0-----0-------------0-----------------------------------------|

LR

VERSE.-

ESTRIBILO 2:

X3

|-----------------------------------------|-------------------|

|-----------------------------------------|-------------------|

|-----------------------------------------|-------------------|

|-0--2-3-2-0--2-3-2/1010101010-9-9--0-3-3-|-0--2-3-2-0--2-3-2/|

|-0--2-3-2-0--2-3-2/8-8-8-8-8--7-7--0-3-3-|-0--2-3-2-0--2-3-2/|

|-0--2-3-2-0--2-3-2/8-8-8-8-8--7-7--0-3-3-|-0--2-3-2-0--2-3-2/|

X2

|---------------------------------------------|

|---------------------------------------------|

|---------12-12-12-12---------11-11-11-11-----|

|/1010101010-10-10-10-9-9-9-9-9--9--9--9------|

|/8-8-8-8-8--8--8--8--7-7-7-7-7--7--7--7------|

|/8-8-8-8----------8--7-7-7-7----------7------|

PUENTE 2:

|-------------0-----------------0-------------------------------|

|---------------3-----------------3-----------------------------|

|-----------2-------2---------2-------2-------------------------|

|-0-------0-------0---0-----0-------0---------------------------|

|-0-----0-------------0---0-------------------------------------|

|-0-----0-------------0---0-------------------------------------|

LR

INTRO X2

ARREGLO EN EL ULTIMO TIEMPO: (CLEAN CON DELAY Y REVERB)

|--------------------------------------------------------------|

|----10--------------------------------------------------------|

|--7----7-8/10-10-9-7------------------------------------------|

|--------------------------------------------------------------|

|--------------------------------------------------------------|

|--------------------------------------------------------------|

CORTE

|--------------------------------------------------------------|

|--------------------------------------------------------------|

|--------------------------------------------------------------|

|-0-0-0-0---0-0-0-0--2/3-2/3-----------------------------------|

|-0-0-0-0---0-0-0-0--2/3-2/3-----------------------------------|

|-0-0-0-0---0-0-0-0--2/3-2/3-----------------------------------|

FILL 1 X4

|--------------------------------------------------------------|

|--------------------------------------------------------------|

|-------6-6----------------------------------------------------|

|-0-0---7-7--7-7-7-7-7-7-7-7-0-3/10----------------------------|

|-0-0-0-5-5--7-7-7-7-7-7-7-7-0-3/10----------------------------|

|-0-0-0-0----7-7-7-7-7-7-7-7-0-3/10----------------------------|

LR

FILL 2 X2

|--------------------------------------------------------------|

|--------------------------------------------------------------|

|-------6-6---6--------6-6---6---------------------------------|

|-0-0---7-7---7--0-0---7-7---7-7-7-7-7---7-7-7-7--0-3/10-------|

|-0-0-0-5-5-5----0-0-0-5-5-5---7-7-7-7---7-7-7-7--0-3/10-------|

|-0-0-0-0---0----0-0-0-0---0---7-7-7-7---7-7-7-7--0-3/10-------|

LR LR

ESTRIBILLO 2

FIN:

|-----------|

|-----------|

|-----------|

|----0------|

|----0------|

|----0------|

LR

www.aurealmusic.com.arAdded by tabs-database.com and our distinguished partners

Get this song at:  amazon.com sheetmusicplus.com

Share your thoughts

0 Comments found