Misc Unsigned Bands

Misc Unsigned Bands - An Endless Sporadic - Sun Of Pearl guitar tab

An Endless Sporadic

Sun of Pearl

Tab by: blindman182

KEY

^ = Full Bend

h = Hammer On

p = Pull Off

( FAST PART ) = Fast Parts( SCALES ) STARTS AT "(" AND ENDS AT ")"

---------------------------------------------------12-13-12-------------|

-------------------------------13-12---15-------15----------15----------|

----12^------------10-------10---------------14----------------14-------|

-------------------------12---------------------------------------------|

------------------------------------------------------------------------|

------------------------------------------------------------------------|

---------------------------------------------------------------15--19---|

------------------13--12--13p12p10-----------15--------------18---------|

----10----9--12------------------------12-14--------16-17-19------------|

--------------------------------------------------17--------------------|

-------------------------------------14---------------------------------|

------------------------------------------------------------------------|

{ FAST PART )

-------15------19-17-15------------------------------------------|

----15------------------18-15-17---------------------------------|

----------17---------------------17-15-14-15---------------------|

-----------------------------------------------------------------|

-----------------------------------------------------------------|

-----------------------------------------------------------------|

( ANOTHER FAST PART )Added by tabs-database.com and our distinguished partners

Get this song at:  amazon.com

Share your thoughts

0 Comments found