Misc Unsigned Bands

Misc Unsigned Bands - Ambulance Ltd - Straight As guitar tab

// Ambulance LTD(official website:www.ambulancenyc.com/) - Straight A's Tab

// Tabbed by Richie

intro guitar:

|--7-7-------------|

|------7-7---------|

|----------8-8-----|

|--------------9-9-|

|------------------|

|------------------|

intro bass:

|------------------|

|------------------|

|------------------|

|----------9-9-----|

|------9-9-----9-7-|

|--7-7-------------|

chord progression of the entire song:

This part is playing the chord then random notes from the chord. The part also changes

the intro part every once and awhile if you listen to the song you will get it.

Bmaj A G A

|--7-------|-9-----|---7-|---9----|

|--7-------|-10----|---8-|---10---|

|--8-------|-9-----|---7-|---9----|

|--9-------|-------|-----|--------|

|--9-------|-------|-----|--------|

|--7-------|-------|-----|--------|Added by tabs-database.com and our distinguished partners

Get this song at:  amazon.com

Share your thoughts

0 Comments found